Oops, an error
Loading. Please wait.

Rattlesnake Blues tab

580 views 54 this week
no commentswrite comment
1 2 3 4 5
2 more votes to show rating
add to favorites
×
Save as Personal and add changes to this tab that will be seen only by you. Learn more ›
×
You can save this tab as Personal to edit and correct it or add notes. All changes will be seen only by you. Learn more »
launch autoscroll
font size
0
reset
how to read this tab
guitar tuner
edit
Autoscroll
slow
fast
+/-
esc
set tempo
stop
[Intro]
e|------------------------------------------------------------------------------|
B|------------------------------------------------------------------------------|
G|------------------------------------------------------------------------------|
D|-----------2---0----------------2---0----------------2---0--------------------|
A|-----0h3------------------0h3------------------0h3----------------------------|
D|-0-0-----0---0--------0-0-----0---0--------0-0-----0---0----------------------|

e|------------------------------------------------------------------------------|
B|------------------------------------------------------------------------------|
G|------------------------------------------------------------------------------|
D|-------0-----------0----------------------------------------------------------|
A|-----0---0-------0---0--------------------------------------------------------|
D|-0h3-------3-3/5-------3b3.5r0------------------------------------------------|

[Verse]
e|------------------------------------------------------------------------------|
B|------------------------------------------------------------------------------|
G|------------------------------------------------------------------------------|
D|---------2-0---0------------2-0---0-----------2---0---------------------------|
A|-----0h3-----3----------0h3-----3---------0h3---3-----------------------------|
D|-0-0----------------0-0---------------0-0-------------------------------------|

e|------------------------------------------------------------------------------|
B|------------------------------------------------------------------------------|
G|------------------------------------------------------------------------------|
D|-------0-----------0----------------------------------------------------------|
A|-----0---0-------0---0--------------------------------------------------------|
D|-0h3-------3-3/5-------3b3.5p0------------------------------------------------|

[Chorus]
e|------------------------------------------------------------------------------|
B|-----------3---1-------1--------------3---1-------1-------------3---1-------1-|
G|-----0h2-----------2------------0h2-----------2-----------0h2-----------2-----|
D|-0-0-----0---0---0---0------0-0-----0---0---0---0-----0-0-----0---0---0---0---|
A|------------------------------------------------------------------------------|
D|------------------------------------------------------------------------------|

e|------------------------------------------------------------------------------|
B|------------------------------------------------------------------------------|
G|------------------------------------------------------------------------------|
D|-------0-----------0----------------------------------------------------------|
A|-----0---0-------0---0--------------------------------------------------------|
D|-0h3-------3-3/5-------3b3.5p0------------------------------------------------|

[Verse]
e|------------------------------------------------------------------------------|
B|------------------------------------------------------------------------------|
G|------------------------------------------------------------------------------|
D|---------2-0---0------------2-0---0-----------2---0---------------------------|
A|-----0h3-----3----------0h3-----3---------0h3---3-----------------------------|
D|-0-0----------------0-0---------------0-0-------------------------------------|

e|------------------------------------------------------------------------------|
B|------------------------------------------------------------------------------|
G|------------------------------------------------------------------------------|
D|-------0-----------0----------------------------------------------------------|
A|-----0---0-------0---0--------------------------------------------------------|
D|-0h3-------3-3/5-------3b3.5p0------------------------------------------------|

e|------------------------------------------------------------------------------|
B|------------------------------------------------------------------------------|
G|------------------------------------------------------------------------------|
D|---------2-0---0------------2-0---0-----------2---0---------------------------|
A|-----0h3-----3----------0h3-----3---------0h3---3-----------------------------|
D|-0-0----------------0-0---------------0-0-------------------------------------|

e|------------------------------------------------------------------------------|
B|------------------------------------------------------------------------------|
G|------------------------------------------------------------------------------|
D|-------0-----------0----------------------------------------------------------|
A|-----0---0-------0---0--------------------------------------------------------|
D|-0h3-------3-3/5-------3b3.5p0------------------------------------------------|

[Chorus]
e|------------------------------------------------------------------------------|
B|-----------3---1-------1--------------3---1-------1-------------3---1-------1-|
G|-----0h2-----------2------------0h2-----------2-----------0h2-----------2-----|
D|-0-0-----0---0---0---0------0-0-----0---0---0---0-----0-0-----0---0---0---0---|
A|------------------------------------------------------------------------------|
D|------------------------------------------------------------------------------|

e|------------------------------------------------------------------------------|
B|------------------------------------------------------------------------------|
G|------------------------------------------------------------------------------|
D|-------0-----------0----------------------------------------------------------|
A|-----0---0-------0---0--------------------------------------------------------|
D|-0h3-------3-3/5-------3b3.5p0------------------------------------------------|

e|------------------------------------------------------------------------------|
B|-----------3---1-------1--------------3---1-------1-------------3---1-------1-|
G|-----0h2-----------2------------0h2-----------2-----------0h2-----------2-----|
D|-0-0-----0---0---0---0------0-0-----0---0---0---0-----0-0-----0---0---0---0---|
A|------------------------------------------------------------------------------|
D|------------------------------------------------------------------------------|

e|------------------------------------------------------------------------------|
B|------------------------------------------------------------------------------|
G|------------------------------------------------------------------------------|
D|-------0-----------0----------------------------------------------------------|
A|-----0---0-------0---0--------------------------------------------------------|
D|-0h3-------3-3/5-------3b3.5p0------------------------------------------------|

[Break]
e|------------------------------------------------------------------------------|
B|------------------------------------------------------------------------------|
G|-2p0---------2p0---------2p0----------2p0---------2p0-------------------------|
D|-----3p0-3-------3p0-0-------3p0-3--------3p0-5-------3p0---------------------|
A|---------3-----------0-----------3------------5-------------------------------|
D|---------3-----------0-----------3------------5-------------------------------|

[Outro]
e|------------------------------------------------------------------------------|
B|------------------------------------------------------------------------------|
G|------------------------------------------------------------------------------|
D|---------2-0---0------------2-0---0-----------2---0---------------------------|
A|-----0h3-----3----------0h3-----3---------0h3---3-----------------------------|
D|-0-0----------------0-0---------------0-0-------------------------------------|

e|------------------------------------------------------------------------------|
B|------------------------------------------------------------------------------|
G|------------------------------------------------------------------------------|
D|-------0-----------0----------------------------------------------------------|
A|-----0---0-------0---0--------------------------------------------------------|
D|-0h3-------3-3/5-------3b3.5p0------------------------------------------------|

e|------------------------------------------------------------------------------|
B|------------------------------------------------------------------------------|
G|------------------------------------------------------------------------------|
D|---------2-0---0------------2-0---0-----------2---0---------------------------|
A|-----0h3-----3----------0h3-----3---------0h3---3-----------------------------|
D|-0-0----------------0-0---------------0-0-------------------------------------|

e|------------------------------------------------------------------------------|
B|------------------------------------------------------------------------------|
G|------------------------------------------------------------------------------|
D|-------0------------0------------0--------------------------------------------|
A|-----0---0--------0---0--------0---0------------------------------------------|
D|-0h3-------3/5--3-------3/5--3-------3/5--3p0---------------------------------|


************************************

| h  Hammer-on
| r  Release
| b  Bend
| /  Slide up
| p  Pull-off

************************************

            
            
Suggest correction
Creating personal tab
Creating personal tab
You can edit any tab online and save it as your Personal.

You can edit, replace or remove any tab part or add personal notes – all changes will be seen only by you.

Personal tabs can be accessed anytime from any device, even offline.
Learn more »
Give kudos to tab author, rate the tab!
1 2 3 4 5
comments
print report bad tab
guest
You may want to rate the tab now too:
select rating
Wanna post a correction for this tab? Suggest correction