Oops, an error
Loading. Please wait.

Chasin That Neon Rainbow Bass Tab

22 views 6 this week
no commentswrite comment
1 2 3 4 5
3 more votes to show rating
add to favorites
launch autoscroll
font size
0
reset
guitar tuner
Autoscroll
slow
fast
+/-
esc
set tempo
stop
Help us to improve Ultimate-Guitar.com Take our survey!
×
Author
Difficulty
novice
About this tab version
The song contains 1/2 notes, In my legend, If this isn't the way to write the notes in the song, please show me how. Was this info helpful? Yes No
[Intro]
G|-------------|-----------|-----------------------------------------------|
D|--5----5-----|--5-----5--|-----------------------------------------------|
A|-----5----5--|-----5-----|-----------------------------------------------|
E|-------------|-----------|-----------------------------------------------|

[Verse 1]
Daddy won a radio, tuned it to a country show
I was rockin' in the cradle, to the cryin' of a steel gui-tar
Mama used to sing to me, taught me that sweet harmony
Now she worries cause she never thought, I'd ever really take it this far
Singin' in the bars

G|----------------|-5-----5----(5)-|----------5-|------------|----------------|-5-----5----(5)-|----------5-|
D|-5----5----(5)--|----5-----(5)---|----7--5----|-----7----7-|-5-----5----(5)-|----5----(5)----|----7--5----|
A|---5----(5)-----|----------------|-5----------|--5----5----|----5-----(5)---|----------------|-5----------|
E|----------------|----------------|------------|------------|----------------|----------------|------------|
                      
G|-----------|----------------------------------------------------------|
D|-5---------|----------------------------------------------------------|
A|---------5-|----------------------------------------------------------|
E|-----------|----------------------------------------------------------|

[Chorus]
Chasin' that neon rainbow, livin' that honky tonk dream
All I've ever wanted, was to pick this guitar and sing
Just tryin' to be some-body, just wanna be heard and seen
Chasin' that neon rain-bow, Livin' that honky tonk dream

G|---------------|-5----------|-------------|------------|--5-----------|---------2-|
D|-5----5----(5)-|----5--5----|--5---------7-|--7---------|-----5--5-----|--5-------|
A|---5----(5)----|----------5-|-----9---7---|------7---5-|-----------5--|------3----|
E|---------------|------------|-------------|------------|--------------|-----------|

G|--------5---|--------------|
D|--5-------5-|--7--------5--|
A|-----5------|------5-------|
E|------------|--------------|

[Chorus 2]
G|--------------|-----------|--------------|
D|-5-----(5)--5-|-7-------5-|--5--7--------|
A|----5---------|-----5-----|--------6--7--|
E|--------------|-----------|--------------|

[Verse 2]
An atlas and a coffe cup, five pickers in an old Dodge truck
Headin' down to Houston, for a show on Saturday night
This overhead is killin' me, half the time I sing for free
But when the crowd's into it, lord it makes this thing I'm doing seem right
Standin' in the spotlight

repeat verse 1

Repeat Chorus

Key Change up one step

[Verse 3]
Daddy's got a radio, he won it thirty years ago
He said "Son I just know we're gonna hear you singin' on it some-day"
I made it up to Music Row, but lordy don't the wheels turn slow
Still I wouldn't trade a minute, and I wouldn't have it any other way
Just show me to the stage

G|------|------------------|--7------7----(7)-|--------------7--|-------------|-----------------|
D|------|--7-----7-----(7)-|------7------(7)--|------9---7------|-----9-----9-|--7-----7----(7)-|
A|---7--|-----7------(7)---|------------------|--7--------------|--7-----7----|-----7-----(7)---|
E|------|------------------|------------------|-----------------|-------------|-----------------|

G|--7-----7----(7)-|--------------7-|--------|
D|-----7-----(7)---|------9---7-----|--7-----|
A|-----------------|--7-------------|------7-|
E|-----------------|----------------|--------|

[End]
Chasin' that neon rainbow, livin' that honky tonk dream
All I've ever wanted, was to pick this guitar and sing
Just tryin' to be some-body, just wanna be heard and seen
Chasin' that neon rain-bow, Livin' that honky tonk dream

G|------------|------------|-------------|-------------|----------------|----------|------------|
D|-7-----7----|----7--7----|--7--6--4----|--9----------|------7---7-----|-7------9-|-7-----7----|
A|----7-----7-|-5--------7-|-----------7-|------9----7-|---5----------7-|----5-----|----7-----7-|
E|------------|------------|---------------------------|----------------|----------|------------|

Chasin' that neon rain-bow, Livin' that honky tonk dream

G|----------|---------------|----------|----------------|----------|             
D|-9------7-|--7------7-----|-----7----|--7-----7-----7-|----------|          
A|----7-----|-----7--------5|5-------7-|-----7-----(7)--|----------|          
E|----------|---------------|----------|----------------|----------|          


***************************************************************
                                                                                    
[Legend]
(n)   = 1/2 beats

***************************************************************
Suggest correction
Give kudos to tab author, rate the tab!
1 2 3 4 5
comments
print report bad tab
guest
You may want to rate the tab now too:
select rating
Wanna post a correction for this tab? Suggest correction