Oops, an error
Loading. Please wait.

Remember When Tab

version 1
version 1

Whole song

Interactive

56,377 views 30 this week
6 commentsread comments
1 2 3 4 5
x 6
add to favorites
launch autoscroll
font size
0
reset
how to read this tab
guitar tuner
backing track
0:00
0:00
×
Best way to learn
"Remember When"
Autoscroll
slow
fast
+/-
esc
set tempo
stop
Tabbed by Jordan Boesch
I dont play guitar, but it sounds right.



15--14--15------------------15--15--14--14/15----15--14--12--10--10---
----------------------------------------------10----------------------
-----------------12------9--------------------------------------------
---------------------12-----------------------------------------------
----------------------------------------------------------------------
----------------------------------------------------------------------

15--14--15------------------15--15--14--14/15----15--14--12--10--10--8
-------------12-------------------------------10----------------------
-----------------12------9--------------------------------------------
---------------------12-----------------------------------------------
----------------------------------------------------------------------
----------------------------------------------------------------------
Suggest correction
comments
print report bad tab
6 comments total. Showing first comments.
0 reply
jboesch26 132 Feb 14, 2004 07:00 PM

cool.

0 reply
extrememan 50 May 21, 2004 08:00 PM

ummm no....

0 reply
chrismckenzie 10 Jan 24, 2011 08:16 AM

--------------------------------------------
-------12-----------------------------------
----------12--------------------------------
-------------12--14-------------------------
--------------------------------------------
--------------------------------------------
sounds exactly the same, just a lil easier on the time and the reach..

guest
You may want to rate the tab now too:
select rating
Wanna post a correction for this tab? Suggest correction