Oops, an error
Loading. Please wait.

Chasing Time Tab

3,659 views 9 this week
2 commentsread comments
1 2 3 4 5
please rate
add to favorites
launch autoscroll
font size
0
reset
how to read this tab
guitar tuner
Autoscroll
slow
fast
+/-
esc
set tempo
stop
Help us to improve Ultimate-Guitar.com Take our survey!
×
Author
Difficulty
intermediate
-------------------------------------------------------------------------------
                             Chasing Time - Alan Pownall                    
-------------------------------------------------------------------------------
Tabbed by: JamesDBaxter
Email: jbaxter99@hotmail.co.uk

www.alanpownall.com

Tuning: EADGBE

Chords Used:

Intro and Verses

e|-------5----7----0----5-----------------------------------------------|
B|-------5----7----0----5-----------------------------------------------|
G|-------6----7----8----6-----------------------------------------------|
D|-------7----7----6----7-----------------------------------------------|
A|-------7----9----7----7-----------------------------------------------|
E|-------5----7----0----5------------------------------------x2---------|


Pre Chorus

e|-------9-----2-----7-----0--------------------------------------------|
B|-------9-----2-----7-----0--------------------------------------------|
G|-------10----2-----7-----8---------1----2----4------------------------|
D|-------11----4-----7-----6--------------------------------------------|
A|-------11----4-----9-----7---------2----4----5------------------------|
E|-------9-----2-----7-----0--------------------------------------------|


Chorus 

e|-------5-----4-----2-----x--------5------7-----5-----------------------|
B|-------5-----5-----2-----x--------5------7-----5-----------------------|
G|-------6-----6-----2-----7--------6------7-----6-------1-----2-----4---|
D|-------7-----6-----4-----7--------7------7-----7-----------------------|
A|-------7-----4-----4-----5--------7------9-----7-------2-----4-----5---|
E|-------5-----x-----2-----x--------5------7-----5-----------------------|


Verse 1

We caught up easy,
I was up and you were down
Your face reads nothing
But it made you sound
So I'm not about
to show you up and weep

I seen you flicker
Out the corner of my eye
it made me look up
As you passed us by
So you broke a smile
And turned your back to leave

You're timeless, I'm only wanting more
When you were running by it I look unsure
When you were running by, did I look unsure?
cause you played me along
And how can I live it down.

Chorus

You didn't have to become
Chasing time
I only ever wanted to make you mine
But I was too far from your side
I got left behind

Verse 2

It sunk in deeper
when I woke up you were gone
I said I'm easy but
But It's been too long
cause you left enough
To leave me wanting more

I know you figured
I'll be better when in time
I let you go
And got get my next in line
Took a second best
And you will never know

Pre Chorus

You're timeless, I'm only wanting more
When I was on your mind did I look unsure
Cause you played me along
And how can I live it down.

Chorus

You didn't have to become
Chasing time
I only ever wanted to make you mine
But I was always too far from your side
I got left behind


Suggest correction
Give kudos to tab author, rate the tab!
1 2 3 4 5
comments
print report bad tab
2 comments total.
0 reply
Finn-6 10 wrote on March 30 2010, 08:26 am

can you make a chord version of this song! tnks dude!

0 reply
Razor52 21 wrote on August 2 2010, 02:56 pm

I think in the chorus its

e|---4---
B|---6---
G|---6---
D|---6---
A|---4---
E|---x---

i.e i think it's major not minor :)
Apart from that this is perfect !

guest
You may want to rate the tab now too:
select rating
Wanna post a correction for this tab? Suggest correction