Oops, an error
Loading. Please wait.

Tri Martolod Ukulele Chords

version 1
version 1

Whole song

Interactive

1 view 1 this week
no commentswrite comment
1 2 3 4 5
3 more votes to show rating
add to favorites
launch autoscroll
font size
0
reset
transpose
0
reset
display chords
guitar tuner
Autoscroll
slow
fast
+/-
esc
set tempo
stop
Help us to improve Ultimate-Guitar.com Take our survey!
×
Author
Difficulty
intermediate
[Solo]

  Am               C                Dm               F       Em
  1 + 2 + 3 + 4 +  1 + 2 + 3 + 4 +  1 + 2 + 3 + 4 +  1 + 2 + 3 + 4 +
A|0-------0---2---|3---3---2-3-----|5---3---2---0---|3-------2-------|
E|0---------------|0---------------|5---------------|1-------0-------|
C|0---------------|0---------------|5---------------|0-------4-------|
G|2---0-----------|0---------------|----------------|2-------0-------|

  Am               C                Dm               F       Em
  1 + 2 + 3 + 4 +  1 + 2 + 3 + 4 +  1 + 2 + 3 + 4 +  1 + 2 + 3 + 4 +  1 + 2 + 
A|0-------0---2---|3---3---2-3-----|5---3---2---0---|3-------2---5---|3---2---|
E|0---------------|0---------------|5---------------|1-------0-------|--------|
C|0---------------|0---------------|5---------------|0-------4-------|--------|
G|2---0-----------|0---------------|----------------|2-------0-------|--------|

  Am               G                F                Em
  1 + 2 + 3 + 4 +  1 + 2 + 3 + 4 +  1 + 2 + 3 + 4 +  1 + 2 + 3 + 4 +
A|0-----------0---|2-------3---2---|0-------0-------|2---------------|
E|0---0---0-------|3---------------|1---1---------2-|0---0-------0---|
C|0---------------|2---------------|0---------------|4---------------|
G|2---------------|0---0-----------|2-----------0---|0-------0-------|

  Am               G                F       Em       Am
  1 + 2 + 3 + 4 +  1 + 2 + 3 + 4 +  1 + 2 + 3 + 4 +  1 + 2 + 3 + 4 +
A|0-----------0---|2-------3---2---|0-------2-------|0---------------|
E|0---0---0-------|3---------------|1-------0-------|0---0---0---0---|
C|0---------------|2---------------|0-------4-------|0---------------|
G|2---------------|0---0-----------|2-------0-------|2---------------|

  Am               G                F                Em
  1 + 2 + 3 + 4 +  1 + 2 + 3 + 4 +  1 + 2 + 3 + 4 +  1 + 2 + 3 + 4 +
A|0-----------0---|2-------3---2---|0-------0-------|2---------------|
E|0---0---0-------|3---------------|1---1---------2-|0---0-------0---|
C|0---------------|2---------------|0---------------|4---------------|
G|2---------------|0---0-----------|2-----------0---|0-------0-------|

  Am               G                F       Em       Am
  1 + 2 + 3 + 4 +  1 + 2 + 3 + 4 +  1 + 2 + 3 + 4 +  1 + 2 + 
A|0-----------0---|2-------3---2---|0-------2-------|0-------|
E|0---0---0-------|3---------------|1-------0-------|0-------|
C|0---------------|2---------------|0-------4-------|0-------|
G|2---------------|0---0-----------|2-------0-------|2-------|

  Am               C                Dm               F       Em
  1 + 2 + 3 + 4 +  1 + 2 + 3 + 4 +  1 + 2 + 3 + 4 +  1 + 2 + 3 + 4 +
A|0-------0---2---|3---3---2-3-----|5---3---2---0---|3-------2-------|
E|0---------------|0---------------|5---------------|1-------0-------|
C|0---------------|0---------------|5---------------|0-------4-------|
G|2---0-----------|0---------------|----------------|2-------0-------|

  Am               C                Dm               F       Em
  1 + 2 + 3 + 4 +  1 + 2 + 3 + 4 +  1 + 2 + 3 + 4 +  1 + 2 + 3 + 4 +  1 + 2 + 
A|0-------0---2---|3---3---2-3-----|5---3---2---0---|3-------2---5---|3---2---|
E|0---------------|0---------------|5---------------|1-------0-------|--------|
C|0---------------|0---------------|5---------------|0-------4-------|--------|
G|2---0-----------|0---------------|----------------|2-------0-------|--------|

[Verse 1]
         Am    G          F         Em
Tri martolod yaouank tralala la lalala
         Am    G             F    Em Am
Tri martolod yaouank o voned da veajiñ

  Am         C          Dm         F Em
O voned da veajiñ ge, o voned da veajiñ
  Am         C          Dm         F Em
O voned da veajiñ ge, o voned da veajiñ

          Am    G        F         Em
Gant avel bet kaset tralala la lalala
          Am    G            F     Em Am
Gant avel bet kaset betek an Douar Nevez

  Am           C           Dm           F Em
Betek an Douar Nevez ge, betek an Douar Nevez
  Am           C           Dm           F Em
Betek an Douar Nevez ge, betek an Douar Nevez

         Am      G     F              Em
E-kichen maen ar veilh tralala la lalala
         Am      G             F    Em Am
E-kichen maen ar veilh e oa ur servijourez

[Solo]

[Verse 2]
  Am                   C            Dm                   F Em
Pelec'h 'n eus graet konesañs ge, pelec'h 'n eus graet konesañs
  Am                   C            Dm                   F Em
Pelec'h 'n eus graet konesañs ge, pelec'h 'n eus graet konesañs

          Am    G          F         Em
E Naoned, er marc'had tralala la lalala
          Am    G                 F      Em Am
E Naoned, er marc'had hor boa choazet ur walenn

[Solo]
Suggest correction
Give kudos to tab author, rate the tab!
1 2 3 4 5
comments
print report bad tab
guest
You may want to rate the tab now too:
select rating
Wanna post a correction for this tab? Suggest correction