Oops, an error
Loading. Please wait.
We have Chord Pro version of Alone.
It's the closest thing you can get to the original song and it has interactive parts. Check out the tab »
×

Alone tab

version 1
version 1

Whole song

  • Full fingerstyle arrangement by Andrew Foy.
  • This is the fingerstyle version of the song Alone ... Show more

Interactive

Video

  • This is Mattias Krantz fingerstyle guitar tutorial of "Alone" by Alan Walker.
37,657 views 570 this week
2 commentsread comments
1 2 3 4 5
x 24
add to favorites
×
Save as Personal and add changes to this tab that will be seen only by you. Learn more ›
×
You can save this tab as Personal to edit and correct it or add notes. All changes will be seen only by you. Learn more »
launch autoscroll
font size
0
reset
how to read this tab
guitar tuner
edit
Autoscroll
slow
fast
+/-
esc
set tempo
stop
Author
Difficulty
Hey guys this is my version of Alan Walker's song Alone. Any suggestions on how this tab could be better
it would be very much appreciated. This is my first tab and it's made by ear so please don't be harsh with me.
It is basically the vocals transcribed into guitar.

My version of this tab on electric guitar:

https://www.youtube.com/watch?v=XU6WtGG1eqw

1st Part

E|--------------------------------------------------------
B|--------------------------------------------------------
G|--12-10-8-3/7---7-7-5-5---7-10-12-10-8-3/7---7-7-7-5-5--
D|--------------------------------------------------------
A|--------------------------------------------------------
E|--------------------------------------------------------

2nd Part

E|---------------------------------------------------------------------------------------
B|---------------------------------------------------------------------------------------
G|--12-14-15-15-15-14-14-12--------------------------------------------------------------
D|----------------------------12-15-15-15-13-13-12---12-8-8-8-12-15---12-7-7-7-12-15-----
A|---------------------------------------------------------------------------------------
E|---------------------------------------------------------------------------------------

3rd Part

E|--------------------------------------------------------------
B|--------------------------------------------------------------
G|--15-15-15-14-14-12-------------------------------------------
D|----------------------12-15-15-15-13-13-12---12-8-8-8-12-15---
A|--------------------------------------------------------------
E|--------------------------------------------------------------

4th Part

E|----------------------------------------------------------------------
B|----------------------------------------------------------------------
G|--15-12-15-17-15-17/15---15-12-15-17-15-17/15---15-12-15-17-15-17/15--
D|----------------------------------------------------------------------
A|----------------------------------------------------------------------
E|----------------------------------------------------------------------

Then it's all again from the beginning.

And then it's the last part.

Last Part (I am not alone)

E|------------------------------------------------------------------ 
B|------------------------------------------------------------------
G|--12-14-15------15-15-14-15---15-19-17-17---15-12-15-17-15-17/15-- x2
D|-----------13-----------------------------------------------------
A|------------------------------------------------------------------
E|------------------------------------------------------------------

            
            
Suggest correction
Creating personal tab
Creating personal tab
You can edit any tab online and save it as your Personal.

You can edit, replace or remove any tab part or add personal notes – all changes will be seen only by you.

Personal tabs can be accessed anytime from any device, even offline.
Learn more »
comments
print report bad tab
2 comments total.
0 reply
cavemencubers 10 Jan 09, 2017 07:59 PM

thanks bro, really helped

+1 reply
hectogames 10 Jun 05, 2017 04:50 PM

Realy good btu Im just wondering why not play on lighter strings so you dont need to play at the bottom of the guitar?

guest
You may want to rate the tab now too:
select rating
Wanna post a correction for this tab? Suggest correction