Oops, an error
Loading. Please wait.
We have Chord Pro version of Faded.
It's the closest thing you can get to the original song and it has interactive parts. Check out the tab »
×

Faded intro tab

version 3
version 3

Whole song

  • There is no full fingerpicking tab of this song.
  • This version is a guitar arrangement of the origin... Show more
  • It is easy for begginers amd i hope you like it.
38,752 views 177 this week
8 commentsread comments
1 2 3 4 5
x 86
add to favorites
×
Save as Personal and add changes to this tab that will be seen only by you. Learn more ›
×
You can save this tab as Personal to edit and correct it or add notes. All changes will be seen only by you. Learn more »
launch autoscroll
font size
0
reset
how to read this tab
guitar tuner
edit
Autoscroll
slow
fast
+/-
esc
set tempo
stop
Tabbed by: Alexander Runsten

Tuning: Standard
Capo on 6th fret

You can play the intro through the whole song if you want but I usually play this during the intro and 
verses and then strum these exact chords for the pre chorus and chorus. 

[Intro] 

   Am                                        F
e|--------------------------------0--------|-5---------5----------5---------3-------|
B|-1---------1----------1------------------|----------------------------------------|
G|-----------------------------------------|----------------------------------------|
D|------2---------2----------2---------2---|----------------------------------------|
A|-0---------3----------0---------3--------|------3----0-----3---------3----0----3--|
E|-----------------------------------------|-1--------------------1-----------------|


   C                                   G
E|-0--------0--------0--------0------|-----------------------------------------|
B|-----------------------------------|-0----------0----------0-----------------|
G|-----0---------0-------0--------0--|---------------------------------2-------|
D|----------2-----------------2------|------0----------0----------0------------|
A|-3-----------------3---------------|------------2--------------------2-------|
E|-----------------------------------|-3---------------------3-----------------|
Suggest correction
Creating personal tab
Creating personal tab
You can edit any tab online and save it as your Personal.

You can edit, replace or remove any tab part or add personal notes – all changes will be seen only by you.

Personal tabs can be accessed anytime from any device, even offline.
Learn more »
comments
print report bad tab
8 comments total. Showing first comments.
+9 reply
oi44326 10 May 02, 2016 04:10 PM

It sounds absolutely off key. Nothing near the likeness of the real song

+3 reply
lukedelvecc 56 May 31, 2016 02:39 AM

Incorrect and lacks accuracy. simply off key and needs further research into the intro of the songIncorrect and lacks accuracy. simply off key and needs further research into the intro of the song

-1 reply
jarredmiranda1 10 Jul 01, 2016 05:19 AM

More like this( Use Capo in 6th fret) Am F C Ge|--------------0--|-5---5---5---3----|--0---0---0---0---|-----------------B|--1---1---1------|------------------|------------------|--0---0---0------G|-----------------|---5---5---5------|----0---0---0-----|--------------2--B|----2---2---2----|-4----------------|------------------|----0---0---0----A|--0--------------|------------------|--3---------------|-----------------E|-----------------|------------------|------------------|--3-------------- Then go to the song, you can play like thisFor each chord ,you can play the melody Surf like this:Bass 3 2 3 1 3 2 3Then change chord : Am F C G

guest
You may want to rate the tab now too:
select rating
Wanna post a correction for this tab? Suggest correction