Oops, an error
Loading. Please wait.

Faded Tab

version 5
version 5

Whole song

  • There is no full fingerpicking tab of this song.
  • This version is a guitar arrangement of the origin... Show more

Interactive

3,007 views 30 this week
no commentswrite comment
1 2 3 4 5
x 3
add to favorites
launch autoscroll
font size
0
reset
how to read this tab
guitar tuner
×
Best way to learn
"Faded"
Autoscroll
slow
fast
+/-
esc
set tempo
stop
I couldn't find any other tabs to help on this, so I just tabbed out the chords on 
fingerstyle based on the piano.


[Intro]
  D#m              B
E|-------------6---11---11---11---9----------------|
B|-7---7---7---------------------------------------|
G|-----8-------8--------8---------8----------------|
D|---8---8---8---8---------------------------------|
A|-6-------6----------9----9----9---9--------------|
E|-----------------7---------7---------------------|

  F#                       C#
E|-------------------------------------------------|
B|-11----11----11----11----------------------------|
G|-------11----------11----10----10----10----8-----|
D|----11----11----11----11-------11----------11----|
A|-9-----------9--------------11----11----11----11-|
E|-------------------------9-----------9-----------|

Thanks!
Suggest correction
Give kudos to tab author, rate the tab!
1 2 3 4 5
comments
print report bad tab
guest
You may want to rate the tab now too:
select rating
Wanna post a correction for this tab? Suggest correction