Oops, an error
Loading. Please wait.

Faded Tab

version 6
version 6

Whole song

  • There is no full fingerpicking tab of this song.
  • This version is a guitar arrangement of the origin... Show more
  • A very easy version to play, for beginners.

Interactive

112 views 57 this week
1 commentread comment
1 2 3 4 5
2 more votes to show rating
add to favorites
launch autoscroll
font size
0
reset
how to read this tab
guitar tuner
Autoscroll
slow
fast
+/-
esc
set tempo
stop
Help us to improve Ultimate-Guitar.com Take our survey!
×
Author
Difficulty
Capo
intermediate
6th fret
Capo: 6th fret

[Main riff]
   Am                F
E|--------------0----5---5---5---3-----|
B|-1---1----1--------------------------|
G|-----2--------2--------2-------2-----|
D|---2---2----2---2--------------------|
A|-0--------0----------3---3---3---3---|
E|-------------------1-------1---------|

   C                 G
E|-0---0----0---0----------------------|
B|-----1--------1----0---0---0---------|
G|---0---0----0---0------0-------2-----|
D|---------------------0---0---0---0---|
A|-3--------3--------------------------|
E|-------------------3-------3---------|
Suggest correction
Give kudos to tab author, rate the tab!
1 2 3 4 5
comments
print report bad tab
1 comment total.
0 reply
TripleJump 35 4 days ago

Really nice. 5 stars, no problem.

guest
You may want to rate the tab now too:
select rating
Wanna post a correction for this tab? Suggest correction