Oops, an error
Loading. Please wait.

Faded Tab

version 6
version 6

Whole song

  • There is no full fingerpicking tab of this song.
  • This version is a guitar arrangement of the origin... Show more

Interactive

3,260 views 36 this week
1 commentread comment
1 2 3 4 5
x 13
add to favorites
launch autoscroll
font size
0
reset
how to read this tab
guitar tuner
×
Best way to learn
"Faded"
Autoscroll
slow
fast
+/-
esc
set tempo
stop
Author
Difficulty
  follow
novice
Song name: Faded
Artist: Alan Walker
Tabbed by: Roy Ram
E-mail: royram2116@gmail.com

[Intro]
e|--------------11-11-11-9---------------------------------------------------|
B|--7-7-7----11-------------11-11-11-11---6-6-6-4----------------------------|
G|---------------------------------------------------------------------------|
D|--------------9--9--9--9---------------------------------------------------|
A|--6-6-6----9--------------9--9--9--9----4-4-4-4----------------------------|
E|---------------------------------------------------------------------------|

Or you can play it like this: 
e|--------------11-11-11-9---------------------------------------------------|
B|--7-7-7----11-------------11-11-11-11---6-6-6-4----------------------------|
G|---------------------------------------------------------------------------|
D|--------------9--9--9--9---------------------------------------------------|
A|---6-6-6----9--------------9--9--9--9----4-4-4-4---------------------------|
E|---------------------------------------------------------------------------|
Suggest correction
comments
print report bad tab
1 comment total.
0 reply
burazin.lovro 10 Dec 22, 2016 03:07 PM

this tab is the best and others tabs of intros suck!

guest
You may want to rate the tab now too:
select rating
Wanna post a correction for this tab? Suggest correction