Oops, an error
Loading. Please wait.

Faded Tab

version 3
version 3

Whole song

  • There is no full fingerpicking tab of this song.
  • This version is a guitar arrangement of the origin... Show more
  • A very easy version to play, for beginners.

Interactive

1,252 views 60 this week
no commentswrite comment
1 2 3 4 5
x 4
add to favorites
launch autoscroll
font size
0
reset
how to read this tab
guitar tuner
Autoscroll
slow
fast
+/-
esc
set tempo
stop
Help us to improve Ultimate-Guitar.com Take our survey!
×
Author
Difficulty
Capo
novice
6th fret
About this tab version
A very easy version to play, for beginners. Was this info helpful? Yes No
e|--------------------0-----|---5-----5-----5-----3-----|--0-----0-----0-----0-----|-----------------------|
B|--1-----1-----1-----------|---------------------------|--------------------------|--0-----0-----0--------|
G|--------------------------|---------------------------|-----0-----0-----0-----0--|--------------------2--|X2
D|-----2-----2-----2-----2--|---------------------------|--------2-----------2-----|-----0-----0-----0-----|
A|--0-----3-----0-----3-----|------3-----3-----3-----3--|--3-----------3-----------|--------2--------------|
E|--------------------------|---1-----1-----1-----1-----|--------------------------|--3-----------3--------|

e|--------------------0-----|---5-----5-----5-----3-----|--0-----0-----0-----0-----|------------------------|
B|--1-----1-----1-----------|---------------------------|--------------------------|--0-----0-----0---------|
G|--------------------------|---------------------------|-----0-----0-----0-----0--|---------------------2~-|
D|-----2-----2-----2-----2--|---------------------------|--------2-----------2-----|-----0-----0-----0------|
A|--0-----3-----3-----3-----|------3-----3-----3-----3--|--3-----------3-----------|--------2---------------|
E|--------------------------|---1-----1-----1-----1-----|--------------------------|--3-----------3---------|

e|--0--0--0--0--|
B|--------------|
G|--------------|
D|--------------|
A|--------------|
E|--------------|

Repeat it again and again. That's it!


************************************

| b   Bend

************************************
Suggest correction
comments
print report bad tab
guest
You may want to rate the tab now too:
select rating
Wanna post a correction for this tab? Suggest correction