Oops, an error
Loading. Please wait.

All I Really Want Chords

version 1
version 1

Whole song

Interactive

49,409 views 27 this week
2 commentsread comments
1 2 3 4 5
x 11
add to favorites
launch autoscroll
font size
0
reset
transpose
0
reset
display chords
guitar tuner
Autoscroll
slow
fast
+/-
esc
set tempo
stop
Help us to improve Ultimate-Guitar.com Take our survey!
×
Author
All I Really Want
Alanis Morissette
From the album: Jagged Little Pill
Transcribed by Rafael Andrade (rafs@hotmail.com)

Guitar 1: play the tabs, with distortion
Guitar 2: play the chords, clean (maybe there's some effects)


 Lick:
e|------------------------|
B|------------------------|
G|------------------------|
D|---------12---13p12-----|
A|-11--13--------------13-|
E|------------------------|

 When you're playing the lick on chorus, the third time is:
e|-----------------------------------|
B|-----------------------------------|
G|-----------------------------------|
D|---------12---13p12----------------|
A|-11--13--------------13--11--13--6-|
E|-----------------------------------|

[Intro:] Bb with guitar 1
         Guitar 2 keep playing Bb

Guitar1: Play the lick four times
Guitar2:
Bb
Do I stress you out
My sweater is on backwards and inside you
and you say how appropiate
I don't want to dissect everything today
I don't mean to pick you apart you see
But I can't help it

Guitar1: (while guitar 2 keeps on Bb)

e|(9)-(9)-(9)-(9)-9h10p9----(9)-----(9)-----(9)---9h10p9|
B|------------------------------------------------------|
G|------------------------------------------------------|
D|------------------------------------------------------|
A|------------------------------------------------------|
E|------------------------------------------------------|

There I go jumping before the gunshot has gone off

-(9)---(9)---9h10p9---(9)----9----9----------|
-------------------------------10----10p8h10-|
---------------------------------------------|
---------------------------------------------|
---------------------------------------------|
---------------------------------------------|

Slap me with a splintered ruler

e|-Same as above-|
B|---------------|
G|---------------|
D|---------------|
A|---------------|
E|---------------|
And it would knock me to the floor if I wasn't there already

e|-Same as above-|
B|---------------|    Guitar2:  Ab  Eb
G|---------------|
D|---------------|
A|---------------|
E|---------------|
If only I could hunt the hunter

Guitar1: Lick
Guitar2:
Bb
And all I really want is some patience
                              Ab  Eb
A way to calm the angry voice
Bb
And all I really want is deliverance
                Ab  Eb
(Ahaaoaoahahao)

And go on...

[Bridge]
Guitar 1 and 2:

Db                                Eb
Enough about me, let's talk about you for a minute
Db                                 Eb
Enough about you, let's talk about life for a while
Db                                   Eb
The conflicts, the craziness and the sound of pretenses

        Guitar 1:Lick
Guitar2:
        Bb
Falling all around... all around


Chords:
Bb: EADGBe   Ab: EADGBe   Eb:EADGBe   Db: EADGBe  
    x13331       466544      x68886       x46664


**************************************

Simbols:
h:Hammer on   p:Pull off

**************************************


That's it! Any questions or corrections (trust me, there are a lot to be 
made!) mail me.



************************************

| p    Pull-off
| (n)  Ghost note
| h    Hammer-on
| x    Dead note

************************************
Suggest correction
comments
print report bad tab
2 comments total.
0 reply
happygals 40 Dec 29, 2006 06:56 PM

COOL

0 reply
chicrock5 21 Jun 19, 2007 01:01 AM

this is ok

guest
You may want to rate the tab now too:
select rating
Wanna post a correction for this tab? Suggest correction