Oops, an error
Loading. Please wait.

Citizen Of The Planet Tab

3,465 views 1 this week
no commentswrite comment
1 2 3 4 5
excellent!
x 4
add to favorites
launch autoscroll
font size
0
reset
how to read this tab
guitar tuner
Tab Pro tools
  • play this tab
  • loop segment
  • change instrument
  • show fretboard
  • metronome
Autoscroll
slow
fast
+/-
esc
set tempo
stop
Contributor
Difficulty
Tuning
Tabbers playing skills
advanced
C# G# C# F# A# D#
intermediate +
---------------------------------------------------------------------------------------------
                        Citizien of the Planet - Alanis Morissette
---------------------------------------------------------------------------------------------
Tabbed by: Matt (matias_espina)
Email: matias_elkabezon@hotmail.com

Tuning: Drop C# (C#-G#-C#-F#-A#-D#) a.k.a. Drop Db  (Db-Ab-Db-Gb-Bb-Eb) [Both are the same]

Verse: (Smooth and Clean)
    1   2   3   4     1   2   3   4     1   2   3   4      1   2   3   4
D#|-----------------|-----------------|------------------|------------------|
A#|-7~--------------|-5~--------------|-3~---------------|-2~---------------|
F#|-----------------|-----------------|------------------|------------------| x6
C#|-----------------|-----------------|------------------|------------------|
G#|-----------------|-----------------|------------------|------------------|
C#|-----------------|-----------------|------------------|------------------|


The following part can be a bit difficult to novices...

Chorus: (w/Distortion)
    1  .  .  .  2  .  .  .  3  .  .  .  4  .  .  .   1  .  .  .  2  .  .  .  3  .  .  .
 .  .  .
D#|------------------------------------------------|---------------------------------------------|
A#|------------------------------------------------|---------------------------------------------|
F#|------------------------------------------------|---------------------------------------------|
C#|-0*----0--------x--x--12*---------10*---------x-|-0--12-0----(0)-x--x--10*---------8~---------|
G#|-0*----0--------x--x--12*---------10*---------x-|-0--12-0----(0)-x--x--10*---------8~---------|
C#|-0*----0--------x--x--12*---------10*·--------x-|-0--12-0----(0)-x--x--10*---------8~---------|

    1  .  .  .  2  .  .  .  3  .  .  .  4  .  .  .   1  .  .  .  2  .  .  .  3  .  .  .
 .  .  .
D#|------------------------------------------------|---------------------------------------------|
A#|------------------------------------------------|---------------------------------------------|
F#|------------------------------------------------|---------------------------------------------|
C#|-0*----0--------x--x--12*---------10*---------x-|-0--12-0----(0)-x--x--10*---8*-------7--8--7~|
G#|-0*----0--------x--x--12*---------10*---------x-|-0--12-0----(0)-x--x--10*---8*-------7--8--7~|
C#|-0*----0--------x--x--12*---------10*·--------x-|-0--12-0----(0)-x--x--10*---8*-------7--8--7~|


Break: (Violins part... I won't tab them, sorry ;D)
    1   2   3   4     1   2   3   4     1   2   3   4      1   2   3   4
D#|-----------------|-----------------|------------------|------------------|
A#|-----------------|-----------------|------------------|------------------|
F#|-----------------|-----------------|------------------|------------------|
C#|-----------------|-----------------|------------------|------------------|
G#|-----------------|-----------------|------------------|------------------|
C#|-----------------|-----------------|------------------|------------------|


Verse: (Smooth and Clean)
    1   2   3   4     1   2   3   4     1   2   3   4      1   2   3   4
D#|-----------------|-----------------|------------------|------------------|
A#|-7~--------------|-5~--------------|-3~---------------|-2~---------------|
F#|-----------------|-----------------|------------------|------------------| x3
C#|-----------------|-----------------|------------------|------------------|
G#|-----------------|-----------------|------------------|------------------|
C#|-----------------|-----------------|------------------|------------------|


Chorus: (w/Distortion)
    1  .  .  .  2  .  .  .  3  .  .  .  4  .  .  .   1  .  .  .  2  .  .  .  3  .  .  .  
 .  .  .      _

  |

  |

  |

  |

  |

  |
                                                                                         
                | x2
    1  .  .  .  2  .  .  .  3  .  .  .  4  .  .  .   1  .  .  .  2  .  .  .  3  .  .  .  
 .  .  .       |

  |

  |

  |

  |

  |

 _|


Verse: (Smooth and Clean)
    1   2   3   4     1   2   3   4     1   2   3   4      1   2   3   4
D#|-----------------|-----------------|------------------|------------------|
A#|-7~--------------|-5~--------------|-3~---------------|-2~---------------|
F#|-----------------|-----------------|------------------|------------------| x3
C#|-----------------|-----------------|------------------|------------------|
G#|-----------------|-----------------|------------------|------------------|
C#|-----------------|-----------------|------------------|------------------|


Chorus: (w/Distortion)
    1  .  .  .  2  .  .  .  3  .  .  .  4  .  .  .   1  .  .  .  2  .  .  .  3  .  .  .  
 .  .  .      _

  |

  |

  |

  |

  |

  |
                                                                                         
                | x3
    1  .  .  .  2  .  .  .  3  .  .  .  4  .  .  .   1  .  .  .  2  .  .  .  3  .  .  .  
 .  .  .       |

  |

  |

  |

  |

  |

 _|

|| ~ Let Ring
|| * Staccato
|| x Dead Note

===============================================================================

Finnally, it took me 4 hours to tab this shit, hope you enjoy it... Because I did...

I'm not a Morissette fan or any, I only tabbed it because I really like this song... I
a very fan of RHCP (I think Flea played with Alanis), The Mars Volta and Nirvana... So
suck balls people, this tab is perfect...

Enjoy ;D

Matt (Matias Espina)

PD: Vamos Argentina!!!
comments
print report bad tab
I want to post or [tab]
guest
You may want to rate the tab now too:
select rating
Please do not post tabs as comments. Select "correction" instead!