Oops, an error
Loading. Please wait.

Everything Tab

version 1
version 1

Whole song

  • There aren't many tabs of this song on the net. Th... Show more
2,231 views 15 this week
no commentswrite comment
1 2 3 4 5
please rate
add to favorites
launch autoscroll
font size
0
reset
how to read this tab
guitar tuner
Autoscroll
slow
fast
+/-
esc
set tempo
stop
Help us to improve Ultimate-Guitar.com Take our survey!
×
Author
Difficulty
intermediate
Title:  Everything
Artist: Alanis Morissette
Album:  So-Called Chaos

tabbed by Loy

-----------------------------------------------------------------------
| These are the plucking/lead parts that you can hear mostly on the   |
| right side speaker. I'm pretty much positive that this tab is 97% - |
| 99% accurate.                                                       |
|                                                                     |
| Note that some of the pluckings may sound off. Therefore I suggest  |
| you open Photo Booth/Quicktime and record a strumming part so you   |
| can pluck along, which is nicer.                                    |
-----------------------------------------------------------------------

=====
INTRO
=====

E|--------5--7--5----------5--7--5-------------7--5----------5--7--5--|
B|-----5----------------5-------------------5-------------5-----------|
G|--------------------------------------------------------------------|
D|--7----------------4-------------------7-------------4--------------|
A|------------------------------------0-------------------------------|
E|--------------------------------------------------------------------|


======
STANZA
======

"I can be an asshole..."
E|------------------------------------------------------------------------------|
B|-----------0----------------0--2--0--------------0----------------0--2--0-----|
G|--------2-----2----------2-----------2--------2-----2----------2-----------2--|
D|-----2----------------1--------------------2----------------1-----------------|
A|--0----------------0--------------------0----------------0--------------------|
E|------------------------------------------------------------------------------|

"I am the wisest woman..."
E|----------------------------------------------------------------------------|
B|-----------0----------------0--2--0--------------0--------------0--2--0-----|
G|--------2-----2----------2-----------2--------2-----2--------2--------------|
D|-----2----------------1--------------------2--------------1-----------------|
A|--0-------------------------------------0-----------------------------------|
E|-------------------2-----------------------------------2--------------------|

"As positive as I am sometimes"
E|----------------------------------------------------------------------------|
B|-----------0----------------0--2--0--------------0--------------0--2--0-----|
G|--------2-----2----------2-----------2--------2-----2--------2--------------|
D|-----2----------------1--------------------2--------------1-----------------|
A|--0-------------------------------------------------------------------------|
E|-------------------2--------------------0--------------2--------------------|


==========
1ST CHORUS
==========

A5 - D5 - A5 - D5

E|--------5--7--5-----------5--7--5----------5--7--5-----------5--7--5--|
B|-----5-----------5-----5----------------5-----------5-----5-----------|
G|----------------------------------------------------------------------|
D|--7-----------------7----------------7-----------------7--------------|
A|----------------------------------------------------------------------|
E|----------------------------------------------------------------------|


==================================================
STANZA (don't use pick on these parts, pluck them)
==================================================

"I blame everyone else..."
E|----------------------------------------------|
B|--5----5----5----5h7p5--4----4----4----2/4----|
G|------------------------2----2----2-----------|
D|--7----7----7----7---------------------2/4----|
A|----------------------------------------------|
E|----------------------------------------------|

"My passive aggressiveness..."
E|----------------------------------------------|
B|--5----5----5----5h7p5--4----4----4----2/4----|
G|------------------------2----2----2-----------|
D|--7----7----7----7---------------------2/4----|
A|----------------------------------------------|
E|----------------------------------------------|

"I'm terrified and mistrusting..."
E|--------------------------------------------|
B|--5----5----5----7/9--4----4----4----2/4----|
G|----------------------2----2----2-----------|
D|--7----7----7----7/9-----------------2/4----|
A|--------------------------------------------|
E|--------------------------------------------|

"As close down as I am sometimes"
E|----------------------------------------------|
B|--5----5----5----5h7p5--4----4----4----4/5\4--|
G|------------------------2----2----2----2------|
D|--7----7----7----7----------------------------|
A|----------------------------------------------|
E|----------------------------------------------|


==========
2ND CHORUS
==========

A5 - D5 - A5 - D5

E|--------5--------5--------------5-----7-----5-----|
B|-----5--------5--------5-----5-----5-----5-----5--|
G|--------------------------------------------------|
D|--7--------7--------7-----7-----------------------|
A|--------------------------------------------------|
E|--------------------------------------------------|

"And you're still here"
E|--------5--------5--------|
B|-----5--------5--------5--|
G|-----------6--------6-----|
D|--7-----------------------|
A|--------------------------|
E|--------------------------|


======
BRIDGE
======

E - D5 - E - D5

"What I resist, persists and speaks louder thank I know"
E|-4---5---7---5p4---4-5------5----------------4---5---7---5p4---4-5------5-------5-------|
B|----5---5---5----5------7-------7---5---7-5-----5---5---5----5------7-------7-------5-7-|
G|---------------------------7---7---6---4-------------------------------7---7---7---7----|
D|----------------------------------------------------------------------------------------|
A|----------------------------------------------------------------------------------------|
E|----------------------------------------------------------------------------------------|

"What I resist, you love, no matter how low or high I go"
E|-4---5---7---5p4---4-5------5-------5--------4---5---7---5p4---4-5----------------------|
B|----5---5---5----5------7-------7-------5-7-----5---5---5----5--------------------------|
G|---------------------------7---7---7---7----------------------------7~~~~~~~~-----------|
D|----------------------------------------------------------------------------------------|
A|----------------------------------------------------------------------------------------|
E|----------------------------------------------------------------------------------------|


======
STANZA
======

"I'm the funniest woman..."
E|------------------------------------------------------------------------------|
B|-----------0----------------0--2--0--------------0----------------0--2--0-----|
G|--------2----------------2-----------2--------2----------------2-----------2--|
D|-----2----------------1--------------------2----------------1-----------------|
A|--0----------------0--------------------0----------------0--------------------|
E|------------------------------------------------------------------------------|


==========
3RD CHORUS
==========

A5 - D5 - A5 - D5

E|--9------9------7------7------10------10------9------9------|
B|-----10-----10-----10-----10------10------10-----10-----10--|
G|------------------------------------------------------------|
D|------------------------------------------------------------|
A|------------------------------------------------------------|
E|------------------------------------------------------------|

E|--9------9------7------7------10------10------12------12------|
B|-----10-----10-----10-----10------10------10------10------10--|
G|--------------------------------------------------------------|
D|--------------------------------------------------------------|
A|--------------------------------------------------------------|
E|--------------------------------------------------------------|

A5 - Bm* - C#m* - D5 (* make 1st string OPEN)

E|--9------9------7------7------10------10------9------7------|
B|-----10-----10-----10-----10------10------10-----10-----10--|
G|------------------------------------------------------------|
D|------------------------------------------------------------|
A|------------------------------------------------------------|
E|------------------------------------------------------------|

E|--9------9------7------7------10------10------12------12------|
B|-----10-----10-----10-----10------10------10------10------10--|
G|--------------------------------------------------------------|
D|--------------------------------------------------------------|
A|--------------------------------------------------------------|
E|--------------------------------------------------------------|

E|--9------9------9------9------9~~~~~~~~~~~~~~~~~~--|
B|-----10-----10-----10-----10-----------------------|
G|---------------------------------------------------|
D|---------------------------------------------------|
A|---------------------------------------------------|
E|---------------------------------------------------|
Suggest correction
Give kudos to tab author, rate the tab!
1 2 3 4 5
comments
print report bad tab
guest
You may want to rate the tab now too:
select rating
Wanna post a correction for this tab? Suggest correction