Oops, an error
Loading. Please wait.

Everything tab

version 2
version 2

Whole song

  • There aren't many tabs of this song on the net. Th... Show more
196 views 6 this week
no commentswrite comment
1 2 3 4 5
3 more votes to show rating
add to favorites
×
Save as Personal and add changes to this tab that will be seen only by you. Learn more ›
×
You can save this tab as Personal to edit and correct it or add notes. All changes will be seen only by you. Learn more »
launch autoscroll
font size
0
reset
how to read this tab
guitar tuner
edit
Autoscroll
slow
fast
+/-
esc
set tempo
stop
Author
Difficulty
About this tab version
There aren't many tabs of this song on the net. That's why I worked hard to get it right and add notes to help players understand. Was this info helpful? Yes No
[Intro]

(instrumental)

Pick this part using Bb chord shape at 6th fret and Eb also at 6th fret but don't play 
all notes of chords. Just pick these with thumb and index finger or pick

e|-------6--8--6---|-------6--8--6--|--------6--8-6-|--------6--8--6|
B|-----6-----------|----8-----------|-----6---------|-----8---------|
G|-----------------|----------------|---------------|---------------|  x 1
D|-----------------|----------------|---------------|---------------|
A|-----------------|-6--------------|---------------|--6------------|
E|-6---------------|----------------|-6-------------|---------------|



[Verse 1]
(vocal beneath tab)

Note: built off Bbsus2 (at first fret)  and   C7/E (at firt fret with open low E)

e|-----------------|----------------|---------------|---------------|
B|----------1-3-1--|-------1--3--1--|--------1-3-1--|------1-3-1----|
G|--------3-------3|---------------3|------3-------3|-------------3-|  x 2
D|-----3-----------|----2-----------|----3----------|----2----------|
A|--1--------------|--1-------------|--1------------|--1------------|
E|-----------------|-0--------------|---------------|-0-------------|

I can be an asshole of the grandest kind
I can withhold like it's going out of style
I can be the moodiest baby and you've never met anyone
Who is as negative as I am sometimes


[Verse 2] 
Note: built off Bbsus2 (at first fret)  and   C7/E (at firt fret with open low E)

e|-----------------|----------------|---------------|---------------|
B|----------1---1--|-------1--3--1--|--------1---1--|------1-3-1----|
G|--------3---3---3|---------------3|------3---3---3|-------------3-|  x 2
D|-----3-----------|----2-----------|----3----------|----2----------|
A|--1--------------|--1-------------|--1------------|--1------------|
E|-----------------|-0--------------|---------------|-0-------------|

I am the wisest woman you've ever met.
I am the kindest soul with whom you've connected.
I have the bravest heart that you've ever seen, And you've never met anyone
Who's as positive as I am sometimes. 


[Chorus 1] 
Note: like the Intro lick off Bb chord and Eb noth at 6th fret

e|-------6--8--6---|-------6--8--6--|--------6--8-6-|--------6--8--6|
B|-----6-----------|----8-----------|-----6---------|-----8---------|
G|-----------------|----------------|---------------|---------------|  x 2
D|-----------------|----------------|---------------|---------------|
A|-----------------|-6--------------|---------------|--6------------|
E|-6---------------|----------------|-6-------------|---------------|

You see everything, you see every part
You see all my light and you love my dark
You dig everything of which I'm ashamed
There's not anything to which you can't relate

e|-----------------|
B|-----------------|
G|----7-----8---7--|  x1
D|-------8---------|
A|-----------------|
E|-6---------------|

And you're still here 


[Verse 3] 
(Note: off Bb chord at 6th fret and C/E at 5th fret)

e|-----------------|----------------|---------------|---------------|
B|------6---6---6--|----5--5--5-6-5-|------6---6--6-|---5--5--5-6-5-|
G|----7----7---7--7|-----5--5------5|----7---7--7--7|----5--5------5|  x 2
D|-----------------|----------------|---------------|---------------|
A|-----------------|--7-------------|---------------|--7------------|
E|--6--------------|----------------|--6------------|---------------|

I blame everyone else, not my own partaking
My passive-aggressiveness can be devastating
I'm terrified and mistrusting
And you've never met anyone as,
As closed down as I am sometimes.


[Chorus 2] 
While the notes below should be accentuated, you can lean in to 
the Bb and Eb chords at the sixth fret and play the notes that were un-enunciated in the opening

e|-------6--8--6---|-------6--8--6--|--------6--8-6-|--------6--8--6|
B|-----6-----------|----8-----------|-----6---------|-----8---------|
G|-----------------|----------------|---------------|---------------|  x 2
D|-----------------|----------------|---------------|---------------|
A|-----------------|-6--------------|---------------|--6------------|
E|-6---------------|----------------|-6-------------|---------------|

You see everything, you see every part
You see all my light and you love my dark
You dig everything of which I'm ashamed
There's not anything to which you can't relate

e|-----------------|
B|-----------------|
G|----7-----8---7--|  x1
D|-------8---------|
A|-----------------|
E|-6---------------|

And you're still here


[Bridge]
Note: It's difficult to make out the guitar notes that are accentuated among the chords 
of the bridge in the production, so I will just note the chord names above the lyrics 

     F            Eb                F         Eb
What I resist, persists, and speaks louder than I know

     F           Eb                 F         Eb
What I resist, you love, no matter how low or high I go


[Verse 4]    

         Bbsus2          C7/E                Bbsus2           C7/E
e|-----------------|----------------|---------------|---------------|
B|--------------1--|-------1--3-1---|------------1--|------1--3-1---|
G|-----------3-----|--------------3-|--------3------|--------------3|  x 2
D|-------3---------|----2-----------|-----3---------|---------------|
A|--1--------------|--1-------------|-1-------------|--1------------|
E|-----------------|0---------------|---------------|0--------------|

I'm the funniest woman that you've ever known
I'm the dullest woman that you've ever known
I'm the most gorgeous woman that you've ever known
And you've never met anyone
Who is as everything as I am sometimes

[Chorus 3/Final]
While the notes below should be accentuated you can lean in to 
the Bb and Eb chords at the sixth fret and play the notes that were un-enunciated in the softer Intro

e|-------6--8--6---|-------6--8--6--|--------6--8-6-|--------6--8--6|
B|-----6-----------|----8-----------|-----6---------|-----8---------|
G|-----------------|----------------|---------------|---------------|  x 2
D|-----------------|----------------|---------------|---------------|
A|-----------------|-6--------------|---------------|--6------------|
E|-6---------------|----------------|-6-------------|---------------|

You see everything, you see every part
You see all my light, and you love my dark 
You dig everything, of which I'm ashamed 
There's not anything, to which you can't relate

e|-----------------|
B|-----------------|
G|----7-----8---7--|  x1
D|-------8---------|
A|-----------------|
E|-6---------------|

And you're still here...

(Repeat Chorus 3)

            
            
Suggest correction
Creating personal tab
Creating personal tab
You can edit any tab online and save it as your Personal.

You can edit, replace or remove any tab part or add personal notes – all changes will be seen only by you.

Personal tabs can be accessed anytime from any device, even offline.
Learn more »
Give kudos to tab author, rate the tab!
1 2 3 4 5
comments
print report bad tab
guest
You may want to rate the tab now too:
select rating
Wanna post a correction for this tab? Suggest correction