Oops, an error
Loading. Please wait.
We have Chord Pro version of Hand In My Pocket.
It's the closest thing you can get to the original song and it has interactive parts. Check out the tab »
×
31,202 views 18 this week
no commentswrite comment
1 2 3 4 5
x 4
add to favorites
launch autoscroll
font size
0
reset
how to read this tab
guitar tuner
backing track
0:00
0:00
Autoscroll
slow
fast
+/-
esc
set tempo
stop
Author
Difficulty
novice
This song was pretty easy!  It can be played alone by just strumming the chords
or you can find a friend and play with you.

This tab is desinated for 2 guitars.  One broken chord and one strum chord.

INTRO
-----

The intro was pretty simple, 4 bars of G.

Broken Chord:

e|-------------------------------------------------------------------|
B|------0---1---0---------0---1---0-------0---1---0-------0---1---0--|
G|--0-----0---0---0-----0---0---0---0---0---0---0---0---0---0---0--0-|
D|-------------------------------------------------------------------|
A|--2h3--------------------------------------------------------------|
E|------3-------------3---------------3---------------3--------------|

Strum Chord: G (320033) x 4


VERSE 1
-------

Broken:
e|-----------------------------------------------------------------|
B|--------0----1----0-----------0----1-----0-----------------------|
G|-----0----0----0----0-----0----0----0-----0----------------------|
D|-----------------------------------------------------------------|
A|-----------------------------------------------------------------|
E|--3---------------------3----------------------------------------|
I'm broke but I'm happy                       I'm
e|-----------------------------------------------------------------|
B|--------0----1----0-----------0----1-----0-----------------------|
G|-----0----0----0----0-----0----0----0-----0----------------------|
D|-----------------------------------------------------------------|
A|-----------------------------------------------------------------|
E|--2---------------------2----------------------------------------|
   sore    but I'm  kind                      I'm
e|-----------------------------------------------------------------|
B|--------0----1----0-----------0----1-----0-----------------------|
G|-----0----0----0----0-----0----0----0-----0----------------------|
D|-----------------------------------------------------------------|
A|-----------------------------------------------------------------|
E|--1--------------------1-----------------------------------------|
   short   but I'm heal-   thy            Yeah
e|-----------------------------------------------------------------|
B|--------0----1----0-----------0----1-----0-----------------------|
G|-----0----0----0----0-----0----0----0-----0----------------------|
D|--2---------------------1----------------------------------------|
A|-----------------------------------------------------------------|
E|-----------------------------------------------------------------|

Repeat these 4 bars for the next part of the verse:

I'm high but I'm grounded, I'm sane but I'm overwhelmed
I'm lost but I'm hopeful, baby


Strum:

I found keeping the two high notes more interesting to listen to, so try this.

G         (320033)
Dsus4/F#  (200233)
F9add6    (130033)
Em maj7   (022033)
Eb maj7   (xx1033)

The chords have wacky name so I'll just call them by their basic chords.

             G                         D
	I'm broke but I'm happy, I'm sore but I'm kind
             F                        Em  Eb
	I'm short but I'm healthy, yeah
             G                          D
	I'm high but I'm grounded, I'm sane but I'm overwhelmed
             F                      Em
	I'm lost but I'm hopeful, baby


CHORUS
------

Broken:
                                    And what it all comes down
e|-------------------------------------1---------1-----------------|
B|-----0---1----3----1----1--------4--------4--------4-------------|
G|---2---2----2----2----2--------0---0----0----0---0----0----------|
D|-2------------------------2--1-----------------------------------|
A|-----------------------------------------------------------------|
E|-----------------------------------------------------------------|
      to                             is that everything's gonna be 
e|-------------------------------------------------------------------|
B|------0---1---0---------0---1---0-------0---1---0-------0---1---0--|
G|----0---0---0---0-----0---0---0---0---0---0---0---0---0---0---0--0-|
D|-------------------------------------------------------------------|
A|-------------------------------------------------------------------|
E|--3-----------------3---------------3---------------3--------------|
   fine  fine  fine                                         coz I got
e|-------------------------------------------------------------------|
B|------1---3---1---------1---3---1-------0---1---0--------3-----3---|
G|----0---0---0---0-----0---0---0---0---0---0---0---0----2---2-----2-|
D|-----------------------------------------------------0-------------|
A|-------------------------------------------------------------------|
E|--1-----------------1---------------0------------------------------|
   one hand in my     pocket    and the other one is givin' a high five
e|-------------------------------------------------------------------|
B|------0---1---0---------0---1---0-------0---1---0-----1-----1------|
G|----0---0---0---0-----0---0---0---0---0---0---0---0--0-0--0---0----|
D|----------------------------------------------------1---0----------|
A|-------------------------------------------------------------------|
E|--3-----------------3---------------3------------------------------|
                                                     (I  feel)
Strum:

G         (320033)
Dsus4/F#  (200233)
F9add6    (130033)
Em maj7   (022033)
Eb maj7   (xx1033)
C9        (x32033)

                                F
	And what it all comes down to
   Eb                                  G
	Is that everything's gonna be fine, fine, fine
                      F
	Cause I got one hand in my pocket
          C9                          D         
	And the other one is givin' a high five

        [G]x 3  Eb D
                (I  feel)
Suggest correction
comments
print report bad tab
guest
You may want to rate the tab now too:
select rating
Wanna post a correction for this tab? Suggest correction