Oops, an error
Loading. Please wait.

Hand In My Pocket Tab

version 3
version 3

Whole song

Interactive

30,662 views 30 this week
no commentswrite comment
1 2 3 4 5
excellent!
x 3
add to favorites
launch autoscroll
font size
0
reset
how to read this tab
guitar tuner
Tab Pro tools
  • play this tab
  • loop segment
  • change instrument
  • show fretboard
  • metronome
Autoscroll
slow
fast
+/-
esc
set tempo
stop
Contributor
Difficulty
Tuning
E A D G B E
#----------------------------------PLEASE NOTE--------------------------------#
#This file is the author's own work and represents their interpretation of the#
#song. You may only use this file for private study, scholarship, or research.#
#-----------------------------------------------------------------------------#
#-- File created with Instab - http://www.pconline.com/~smcarey/instab.html --#
#-----------------------------------------------------------------------------#

Author/Artist: Alanis Morissette
Title: Hand in My Pocket


Standard Tuning


----|-------3---3---3----3--|
----|----3--------3---3-----|
----|-----------------------|
----|-----------------------|
----|-----------------------|
----|-3---------------------|
    

  Intro/Verse




----|-----3---3---3----3--------3-------------3---3---3----3------3--3--|
----|---3-------3---3------3---------3------3-------3---3-------3-------|
----|-------------------------------------------------------------------|
----|-------------------------------------------------------------------|
----|-5--------------------3--------------------------------------------|
----|-------------------------------------3--------------------3--------|
    

  Chorus


---3-----3--------3---3---3----3-------3----------3----|
-3---3----------3-------3---3--------3---------3-------|
-------------------------------------------------------|
-------------------------------------------------------|
--------------5--------------------3-------------------|
--------------------------------------------3----------|
                                               
comments
We did not receive enough feedback on this tab! Please rate:
print report bad tab
1 2 3 4 5
I want to post or [tab]
guest
You may want to rate the tab now too:
select rating
Please do not post tabs as comments. Select "correction" instead!