Oops, an error
Loading. Please wait.

Hands Clean Tab

version 1
version 1

Acoustic

Whole song

Interactive

531 views 1 this week
no commentswrite comment
1 2 3 4 5
please rate
add to favorites
launch autoscroll
font size
0
reset
how to read this tab
guitar tuner
Autoscroll
slow
fast
+/-
esc
set tempo
stop
Help us to improve Ultimate-Guitar.com Take our survey!
×
Author
Difficulty
novice
-------------------------------------------------------------------------------
                             HANDS CLEAN - Alanis Morissette
-------------------------------------------------------------------------------
Tabbed by: sezar
E-mail:keanu-rimedorf@hotmail.com

Tuning: Standard

I have this acoustic version of the song, I don't remember where I got this, I couldn't find it
anywhere on internet but I have it and it's a really nice, warm version of the song. And it's the
same chords really but played arpeggio which isn't on internet, so voila!


Intro & Verse:

e|-----3---------3-------3---------3---------------------------------------------------|
B|---3---3-----3---3---3---3-----3---3-------------------------------------------------|
G|-4-------4h5-------4-------4h5-------------------------------------------------------|
D|-------------------------------------------------------------------------------------|
A|-------------------------------------------------------------------------------------|
E|-------------------------------------------------------------------------------------|

Chorus:

e|-----3-------5-------3--------3------------------------------------------------------|
B|---3---3---7---7---3---3----3---3----------------------------------------------------|
G|-4-------7-------4-------4h5---------------------------------------------------------|
D|-------------------------------------------------------------------------------------|
A|-------------------------------------------------------------------------------------|
E|-------------------------------------------------------------------------------------|

C           D           Bm         C
We'll fast forward to a few years later
C           D           Bm         C
And no-one knows except the both of us
C           D              Bm        C
And I have honoured your request for silence
C           D           Bm            C
And you've washed your hands clean of this


Em               C              G                    D
What part of our history is re-invented and under rug swept
Em                C              G                    D
What part of your memory is selective and tends to forget

What's with the distance it seems so obvious
Suggest correction
Give kudos to tab author, rate the tab!
1 2 3 4 5
comments
print report bad tab
guest
You may want to rate the tab now too:
select rating
Wanna post a correction for this tab? Suggest correction