Oops, an error
Loading. Please wait.

I Was Hoping tab

version 2
version 2

Whole song

Interactive

139 views 9 this week
no commentswrite comment
1 2 3 4 5
3 more votes to show rating
add to favorites
×
Save as Personal and add changes to this tab that will be seen only by you. Learn more ›
×
You can save this tab as Personal to edit and correct it or add notes. All changes will be seen only by you. Learn more »
launch autoscroll
font size
0
reset
how to read this tab
guitar tuner
edit
Autoscroll
slow
fast
+/-
esc
set tempo
stop
About this tab version
Based on the MTV Unplugged version. Was this info helpful? Yes No
This is based on the MTV Unplugged version and also on other acoustic renditions that can be found on YouTube.

The main acoustic guitar is tuned to Drop D and the guitar player adds very minor changes here and there.

Intro, instrumental (after first chorus) and ending:

e|-------------------------------|
B|-------------------------------|
G|--------9h10--------9------7---|
D|-----7-----------7-------------|  (x 4)
A|-------------------------------|
D|---0---------(0)-------(0)-----|

Verses:

     Dm
e|-----------------------------------------------------------|
B|-----------------------------------------------------------|
G|--------9h10--------9------7--------9h10--------9------7---|
D|-----7-----------7---------------7-----------7-------------|
A|-----------------------------------------------------------|
D|---0---------(0)-------(0)-----0---------(0)-------(0)-----|

     Bb                             Gm
e|-------------------------------------------------------------|
B|-------------------------------------------------------------|
G|-------------------------------------------------------------|
D|---------10h12--------12----------------7h8-----7-----5------|
A|------8------------8----------8------5-------------------5---|
D|---8----------(8)--------(8)------5---------(5)---(5)--------|


Choruses:

     Dm
e|-----------------------------------------------------------|
B|-----------------------------------------------------------|
G|--------9h10--------9------7--------9h10--------9------7---|
D|-----7-----------7---------------7-----------7-------------|
A|-----------------------------------------------------------|
D|---0---------(0)-------(0)-----0---------(0)-------(0)-----|

     C                              Gm
e|------------------------------------------------------------------|
B|------------------------------------------------------------------|
G|------------------------------------------------------------------|
D|-----------12h14----------14-----------------7h8-----7-----5------|
A|-------10-------------10----------10------5-------------------5---|
D|---10------------(10)--------(10)------5---------(5)---(5)--------|


During the final chorus, the chords are actually strummed instead of arpeggiated.

Final chord (let ring):

     Dm
e|---------------10---|
B|------------10------|
G|---------10---------|
D|------12------------|
A|---12---------------|
D|--------------------|


************************************

| x   Dead note
| g   Grace note
| (n) Ghost note
| h   Hammer-on
| p   Pull-off
| r   Release
| >   Accented note
| t   Tapping
| b   Bend
| br  Bend release
| pb  Pre-bend
| pbr Pre-bend release
| /   Slide up
| \   Slide down
| ~   Vibrato
| s   Slap
| P   Pop
| PM  Palm mute
| TR  Trill
| N   Tremolo

************************************

            
            
Suggest correction
Creating personal tab
Creating personal tab
You can edit any tab online and save it as your Personal.

You can edit, replace or remove any tab part or add personal notes – all changes will be seen only by you.

Personal tabs can be accessed anytime from any device, even offline.
Learn more »
Give kudos to tab author, rate the tab!
1 2 3 4 5
comments
print report bad tab
guest
You may want to rate the tab now too:
select rating
Wanna post a correction for this tab? Suggest correction