Oops, an error
Loading. Please wait.

Ironic Tab

version 1
version 1

Acoustic

Whole song

Interactive

11,198 views 36 this week
no commentswrite comment
1 2 3 4 5
x 3
add to favorites
launch autoscroll
font size
0
reset
how to read this tab
guitar tuner
Autoscroll
slow
fast
+/-
esc
set tempo
stop
Help us to improve Ultimate-Guitar.com Take our survey!
×
Author
Capo
2nd fret
Alanis Morisette - Ironic - Capo on 2nd!

Intro:

E----3--3-3-3--3-3-3---5--5-5-5--5-5-5---3--3-3-3--3-3-3-!
H----0--0-0-0--0-0-0---0--0-0-0--0-0-0---0--0-0-0--0-0-0-!
G----0--0-0-0--0-0-0---0--0-0-0--0-0-0---0--0-0-0--0-0-0-!
D----2--2-2-2--2-2-2---4--4-4-4--4-4-4---2--2-2-2--2-2-2-!
A----3--3-3-3--3-3-3---5--5-5-5--5-5-5---3--3-3-3--3-3-3-!
E--------------------------------------------------------!


E----3-2--------!
H--------3------!
G----------0----!
D---------------!
A----3-3-3------!
E---------------!

Verse: 2x

E---------------------------------------------------------------|
H-----3--3----3-----0------------3-----3----------3-----------0-|
G-----2--2----2-----0------------2-----2--------2-------------0-|
D---------------------------------------------------------------|
A---------------------------------------------------------------|
E-----2--3----2-----0------------2-----3--------2-------------0-|

  An old man turned 98, he won the lottery, and died the next day......

Chorus:

             D  G         D       em
  It's like rain, on your wedding day
It's a free ride, that you've already paid
It's a good advice, that you just didn't take
     F               C         D
And who would have thought it figures

Another Verse

Bridge: 7x

E----3--3-3-3--3-3-3---5--5-5-5--5-5-5-!
H----0--0-0-0--0-0-0---0--0-0-0--0-0-0-!
G----0--0-0-0--0-0-0---0--0-0-0--0-0-0-!
D----2--2-2-2--2-2-2---4--4-4-4--4-4-4-!
A----3--3-3-3--3-3-3---5--5-5-5--5-5-5-!
E--------------------------------------!


E-------3--3-3-3--3-3-3-!
H-------0--0-0-0--0-0-0-!
G-------0--0-0-0--0-0-0-!
D-------2--2-2-2--2-2-2-!
A-------3--3-3-3--3-3-3-!
E-----------------------!



E----3-2--------!
H--------3------!
G----------0----!
D---------------!
A----3-3-3------!
E---------------!
Suggest correction
Give kudos to tab author, rate the tab!
1 2 3 4 5
comments
print report bad tab
guest
You may want to rate the tab now too:
select rating
Wanna post a correction for this tab? Suggest correction