Oops, an error
Loading. Please wait.

King Of Pain Tab

43,548 views 27 this week
2 commentsread comments
1 2 3 4 5
excellent!
x 7
add to favorites
launch autoscroll
font size
0
reset
how to read this tab
guitar tuner
Autoscroll
slow
fast
+/-
esc
set tempo
stop
Help us to improve Ultimate-Guitar.com Take our survey!
×
Author
Difficulty
tordajav 5,666
novice
Hallo, my name is Vladimir, Im from Serbia.
This one is from Alanis unplugged album back in 1999 year...
...performed with Sting, I guess...






          Alanis Morissette - King of pain
            (album: MTV Unplugged, 1999)




Intro:


    [  C#m  ]   [   B   ]
e|------------------2-------|
B|---------5----------------|
G|---------6------------4---|
D|-------6--------4---4-----|   4X
A|---2/4--------2-----------|
E|--------------------------|



           C#m        B            C#m    B    C#m, B, C#m,B
There's a little black spot on the sun today



    [  A  ]  [   B   ]
e|---------------2-------|
B|-------2---------------|
G|-------2-----------4---|
D|-----2-------4---4-----|
A|---0-------2-----------|
E|-----------------------|



          A      B          A     B     D#7 D#m7 A
It's the same old thing as yesterday




    [  D#7  ][  D#m7  ]   [    A    ]
e|--------------------------------------|
B|---------9------7---------------------|
G|--------------6-----6-------6-----6~--|
D|-------8----8-----8-------7-----7-----|
A|---4/6--------------------------------|
E|------------------------5-----5-------|



           C#m     B            C#m        B    C#m, B, C#m, B
There's a black hat caught in a high tree top
            A      B             A          B    G#m7, A/C#, Asus2/7M, Asus2(13)
There's a flag pole rag and the wind won't stop




     [     G#m7    ]    [  A/C# ][Asus2/7M][Asus2(13)]
e|-------4--------------------------------------------|
B|-------------7--------5-----------------------------|
G|-----------4-----4-----6-----6------4---------2-----|
D|---------4-----4--------7----7------6---------4-----|
A|-----6-------------------4--4------0---------0------|
E|---4------------------------------------------------|



         E          E/F#            E/G#     A
I have stood here before inside the pouring rain
          E           E/F#             E/G#        A
With the world turning circles running 'round my brain
        E          E/F#               E/G#      A
I guess I'm always hoping that you'll end this reign
         E      E/F#          E/G#     A
But it's my destiny to be the king of pain




    [ E ] [E/F#][E/G#][ A ]
e|-----0-----0-----0-----0---|
B|-----0-----0-----0-----2---|
G|---------------------------|
D|----2-----2-----2-----2----|
A|---------------------0-----|
E|---0-----2-----4-----------|



          C#m          B             C#m         B
There's a fossil that's trapped in a high cliff wall
C#m        B         C#m  B
That's my soul up there
           A            B          A    B
There's a dead salmon frozen in a waterfall
G#m7                A
That's my soul up there
          C#m         B             C#m         B
There's a blue whale beached by a springtide's ebb
C#m        B         C#m  B
That's my soul up there
           A      B                A       B
There's a butterfly trapped in a spider's web
G#m7                A
That's my soul up there



I have stood here before inside the pouring rain
With the world turning circles running 'round my brain
I guess I'm always hoping that you'll end this reign
But it's my destiny to be the king of pain



B                      E            A
There's a king on a throne with his eyes torn out
B                    E              A
There's a blind man looking for a shadow of doubt
B                   E           A/F#
Ther's a rich man sleeping on a golden bed
B                   E             A        C#m
There's a skeleton choking on a crust of bread




Chords: C#m, B, C#m, B, C#m, B, C#m, B
        A, B, A, B
        G#m7, A



          C#m     B         C#m         B    C#m, B, C#m, B
There's a red fox torn by a huntsman's pack
            A           B            A     B    G#m7, A
There's a black winged gull with a broken back
          C#m         B            C#m    B    C#m, B, C#m, B
There's a little black spot on the sun today
          A         B       A     B    G#m7, A
It's the same old thing as yesterday



I have stood here before inside the pouring rain
With the world turning circles running 'round my brain
I guess I'm always hoping that you'll end this reign
But it's my destiny to be the queen of pain



E, E/F#, E/G#, A
............... queen of pain
E, E/F#   E/G#     A
..... I'll always be queen of pain
E, E/F#   E/G#     A             E, E/F#, E/G#, A
..... I'll always be queen of pain





Used chords:

           EADGBe
C#m--------x46654
B----------x24442
A----------x02220, 577655
D#7--------x68696
D#m7-------x68676
G#m7-------464474
A/C#-------x4765x
Asus2/7M---x06400
Asus2(13)--x04200
E----------022100
E/F#-------2x2100
E/G#-------4x2100



Any comments post me at tordajav@yahoo.com
Suggest correction
What's this?
You can suggest a correction to this tab. Community and Mods will review your correction and vote to approve or reject it.
comments
print report bad tab
2 comments total.
0 reply
Jonesy Whitesto 373 wrote on June 16 2016, 02:36 pm

maybe the intro is:

[ C#m ] [ B ]
e|------------------2-------|
B|---------5----------------|
G|---------6----------------|
D|-------6--------4-----4---| 4X
A|---2/4--------2-----2-----|
E|--------------------------|

..or not?

0 reply
gilgamesh777 10 wrote on July 15 2016, 02:31 am

Yes, Jonesy! That's funny...I accidentally played that same thing. I agree, that's what it needed. :)

guest
You may want to rate the tab now too:
select rating
Please do not post tabs as comments. Select "correction" instead!