Oops, an error
Loading. Please wait.

That I Would Be Good bass

version 1
version 1

Whole song

Interactive

2,397 views 1 this week
1 commentread comment
1 2 3 4 5
x 5
add to favorites
×
Save as Personal and add changes to this tab that will be seen only by you. Learn more ›
×
You can save this tab as Personal to edit and correct it or add notes. All changes will be seen only by you. Learn more »
launch autoscroll
font size
0
reset
guitar tuner
edit
Autoscroll
slow
fast
+/-
esc
set tempo
stop
Author
In fact this is a pretty easy song on bass, just follow the chords on the guitar:

Intro; A - D (2x)

A - D - Bmin - E
A - D - Bmin - E
Fismin - D - Bmin - A - E
Fismin - D - A - E

That's all, but here's a little trick to play this song on your own, without the help of 
other musicians...just you and your beloved four-string !! (great exercise too):

Intro:
     (A)       (D)
G]--18--18----18--18-|
D]-------------------|   2 X
A]------------17--17-|
E]--17--17-----------|

Song:
      (A)       (D)       (Bmin)    (E)
G]--18--18----18--18----19--19----13--13------|
D]--------------------------------------------|     2 X
A]------------17--17--------------------------|
E]--17--17--------------19--19----12--12------|

    (Fismin)    (D)     (Bmin)  (A)   (E)
G]--14--14----11--11----19--19---18---13--13-|
D]-------------------------------------------|    1 X
A]-------------------------------------------|
E]--14--14----10--10----19--19---17---12--12-|

    (Fismin)   (D)        (A)       (E)
G]--14--14----11--11----18--18----13--------------|let ring
D]------------------------------------------------|         1 X
A]------------------------------------------------|
E]--14--14----10--10----17--17----12--------------|let ring


Have fun !!

            
            
Suggest correction
Creating personal tab
Creating personal tab
You can edit any tab online and save it as your Personal.

You can edit, replace or remove any tab part or add personal notes – all changes will be seen only by you.

Personal tabs can be accessed anytime from any device, even offline.
Learn more »
comments
print report bad tab
1 comment total.
0 reply
fernandocdr 10 Sep 20, 2013 12:57 PM

Great tab!

guest
You may want to rate the tab now too:
select rating
Wanna post a correction for this tab? Suggest correction