Oops, an error
Loading. Please wait.

Black Velvet Bass Tab

version 1
version 1

Whole song

Interactive

14,298 views 204 this week
no commentswrite comment
1 2 3 4 5
2 more votes to show rating
add to favorites
launch autoscroll
font size
0
reset
guitar tuner
Autoscroll
slow
fast
+/-
esc
set tempo
stop
Help us to improve Ultimate-Guitar.com Take our survey!
×
Author
				BASSLINE FOR BLACK VELVET
                           As recorded by Alanah Myles

Transcribed by Michael Raisey
gemini67@globalfreeway.com.au
Edited for 5-string Bass by Robert v. Beilen
Standard 5 String tuning: B-E-A-D-G

All credits go to Michael Raisey, i just changed it for 5 string.

|-------|-----------------|-------------------|-----------------|--------------------|
|-------|-----------------|-------------------|-----------------|--------------------|
|-4-----|-----------------|-----------------4-|-----------------|-------------4------|
|---6-4-|-–---------------|-------------4-6---|-–---------------|-–-------------6-4--|
|-------|-4-4-4-4-4-4-4-4-|-4-4-4-4-4-4-------|-4-4-4-4-4-4-4-4-|-4-4-4-4-4-4--------|
  4 + a                     1 + 2 + 3 + 4 + a

||------------------|-------------------|-----------------|------------------------|
||o-----------------|-------------------|-----------------|-----4---4-3---3-1------|
||o-----------------|-----------------4-|-----------------|-------4-----3-----1----|
||------------------|-------------4-6---|-----------------|---------------------2--|
||--4-4-4-4-4-4-4-4-|-4-4-4-4-4-4-------|-4-4-4-4-4-4-4-4-|-4-4--------------------|
   Mmmmmm                         4 + a                     1 + 2 + a 3 + a 4 + a

|-----------------|-------------------|-----------------|--------------------|
|-----------------|-------------------|-----------------|--------------------|
|-----------------|-----------------4-|-----------------|-------------4------|
|-----------------|-------------4-6---|-----------------|---------------6-4--|
|-4-4-4-4-4-4-4-4-|-4-4-4-4-4-4-------|-4-4-4-4-4-4-4-4-|-4-4-4-4-4-4--------|
 Mississipi
 Up in Memphis


|-----------------|-------------------|-----------------|--------------------|
|-----------------|-------------------|-----------------|--------------------|
|-----------------|-----------------4-|-----------------|--------------------|
|-----------------|-------------4-6---|-----------------|-------------2-4-5--|
|-4-4-4-4-4-4-4-4-|-4-4-4-4-4-4-------|-4-4-4-4-4-4-4-4-|-4-4-4-4-4-4--------|
  Mammas dancing
  Mammas babys

                                                        1 + 2 + 3 + a 4 + a
|-----------------|-----------------|-----------------|----------------------|
|-----------------|-----------------|-----------------|----------------------|
|-----------------|-----------------|-----------------|-4-4-4-4-4-------1-2--|
|-6-6-6-6-6-6-6-6-|-4-4-4-4-4-4-4-4-|-2-2-2-2-2-2-2-2-|-----------4---2------|
|-----------------|-----------------|-----------------|-------------4--------|
                                      Always wanting more


  $
|-----------------|-----------------|-----------------|--------------------|
|-----------------|-----------------|-----------------|--------------------|
|-----------------|-4-4-4-4-4-4-4-3-|-----------------|---------2-2-1------|
|-4-4-4-4-4-4-4-4-|-----------------|-4-4-4-4-4-4-4-4-|---------------4-2--|
|-----------------|-----------------|-----------------|-5-5-5-5------------|
  Black Velvet                                                      4 + a

                                          1.          2.
                                  To Coda
|-----------------|-----------------------|------------||------------------|
|-----------------|-----------------------|-----------o||------------------|
|-----------------|-4-4-4-4-4-4-4-4-------|-2----1----o||-2-2-2-2-1-1-1-1--|
|-4-4-4-4-4-4-4-4-|-----------------------|------------||------------------|
|-----------------|-----------------------|------------||------------------|
 A new religion                                           Black velvet if you please


|-----------------|---------------------|-----------------|------------------|
|-----------------|---------------------|-----------------|------------------|
|-----------------|-------------------2-|-----------------|-1-1-1-1-1-1-1-1--|
|-----------------|---------2-4-6-2-4---|-4-4-4-4-4-4-4-4-|------------------|
|-4-4-4-4-4-4-4-4-|-4-4-4-4-------------|-----------------|------------------|
                            3 + a 4 + a   Every word


|-------------------|-------------------|-----------------|------------------|
|-------------------|-------------------|-----------------|------------------|
|---------------1---|-----------------1-|-----------------|------------------|
|-------------4---3-|-------------2-4---|-4-4-4-4-4-4-4-4-|------------------|
|-4-4-4-4-4-4-------|-4-4-4-4-4-4-------|-----------------|-5-5-5-5-5-5-5-5--|
              4 + a               4 + a  In a flash

               ~    
|------------|------------||------------------|--------------------|
|------1-----|------------||o-----------------|--------------------|
|-2-------4--|-1----------||o-----------------|-----------------4--|
|------------|-------p(4)-||------------------|-------------4-6----|
|------------|------------||--4-4-4-4-4-4-4-4-|-4-4-4-4-4-4--------|
                           (Guitar Solo)

                                       
  1.                                      2.                      D.S. al Coda
|-----------------|--------------------||-----------------|-------------------|
|-----------------|-------------------o||-----------------|-------------------|
|-----------------|-------------4-----o||-----------------|-------------------|
|-----------------|---------------6-4--||-----------------|-------------2-4-6-|
|-4-4-4-4-4-4-4-4-|-4-4-4-4-4-4--------||-4-4-4-4-4-4-4-4-|-4-4-4-4-4-4-------|


 Coda &                     3 + a 4 + a
|-----------------|---------------------|-----------------|------------------|
|-----------------|---------------------|-----------------|------------------|
|-2-2-2-2-1-1-1-1-|---------------------|-----------------|-4-4-4-4-4-4-4-4--|
|-----------------|---------2-4-6-3-4-6-|-4-4-4-4-4-4-4-4-|------------------|
|-----------------|-4-4-4-4-------------|-----------------|------------------|
 black velvet if you please              Black velvet


|-----------------|-------------------|-----------------|-----------------|---------|
|-----------------|-------------------|-----------------|-----------------|---------|
|-----------------|---------2-2-1-----|-----------------|-4-4-4-4-4-4-4-4-|-2----1--|
|-4-4-4-4-4-4-4-4-|---------------4-2-|-4-4-4-4-4-4-4-4-|-----------------|---------|
|-----------------|-5-5-5-5-----------|-----------------|-----------------|---------|
                                        A new religion

||------------------|--------------------||-----------------|--------------------|
||o-----------------|-------------------o||-----------------|--------------------|
||o-----------------|-------------------o||-----------------|--------------------|
||------------------|-------------4-6-2--||-0-0-0-0-0-0-0-0-|---------------4-6--|
||--4-4-4-4-4-4-4-4-|-4-4-4-4-4-4--------||-4-4-4-4-4-4-4-4-|-4-4-4-4-4-4-4------|


|-----------------|---------------------|-----------------|--------------------|
|-----------------|---------------------|-----------------|--------------------|
|-----------------|-----------4h6-4-----|-----------------|--------------------|
|-----------------|---------4-------6-4-|-----------------|---------------4-6--|
|-4-4-4-4-4-4-4-4-|-4-4-4-4-------------|-4-4-4-4-4-4-4-4-|-4-4-4-4-4-4-4------|

                    1 + 2 + 3 + a 4 + a

|-----------------|-------------------|--|
|-----------------|-------------------|--|
|-----------------|-------------------|--|
|-----------------|-------------4-6---|--|
|-4-4-4-4-4-4-4-4-|-4-4-4-4-4-4-----7-|--|


Suggest correction
Give kudos to tab author, rate the tab!
1 2 3 4 5
comments
print report bad tab
guest
You may want to rate the tab now too:
select rating
Wanna post a correction for this tab? Suggest correction