Oops, an error
Loading. Please wait.

Black Velvet Bass Tab

version 3
version 3

Whole song

Interactive

259 views 48 this week
no commentswrite comment
1 2 3 4 5
2 more votes to show rating
add to favorites
launch autoscroll
font size
0
reset
guitar tuner
Autoscroll
slow
fast
+/-
esc
set tempo
stop
Help us to improve Ultimate-Guitar.com Take our survey!
×
Author
Difficulty
Tuning
intermediate
D# G# C# F# A# D#
About this tab version
Looking for that low Key Bass buzz from the Song? Sounds near perfect on my Stringray 4, with 1 humbucker and no effect, but maybe a little Flanger and Phaser effect may help the rest of you. Its just a rewrite of the 5 string version for 4 string Standard Eb tuning. Was this info helpful? Yes No
Credits
Michael Raisey - Original Tab Author gemini67@globalfreeway.com.au
Robert V. Beilen - Revised it for 5 string
Mark Nolasco - Who fixed the note structure
James Bates - Transposed to 4 String Eb Tuning

Music Information
Time Signature -12/8 (shuffle)
[A] D.S. (Dal Segno)
[To [A] ] DS al CODA
[To [B} ] To CODA
[B] CODA
ALL Repeats - just once

           (Intro)
Gb|-------|-----------------|-------------------|-----------------|--------------------|
Db|-------|-----------------|-------------------|-----------------|--------------------|
Ab|-5-----|-----------------|-------------------|-----------------|-------------5------|
Eb|---7-5-|-0–0-0-0-0-0-0-0-|-0-0-0-0-0-0-5-0-3-|-0-0-0-0-0-0-0-0-|-0–0-0-0-0-0---7-5--|
    4 + a                     1 + 2 + 3 + 4 + a

||------------------|-------------------|-----------------|------------------------|
||o-----------------|-------------------|-----------------|-----5-----4------------|
||o-----------------|-------------------|-----------------|-------5-----5---5---5--|
||--0–0-0-0-0-0-0-0-|-0-0-0-0-0-0-5-0-3-|-0–0-0-0-0-0-0-0-|-0-0-----7-----7---7----|
   Mmmmmm                         4 + a                     1 + 2 + a 3 + a 4 + a

(verse)
|-----------------|-------------------|-----------------|--------------------|
|-----------------|-------------------|-----------------|--------------------|
|-----------------|-------------------|-----------------|-------------5------|
|-0–0-0-0-0-0-0-0-|-0-0-0-0-0-0-5-0-3-|-0-0-0-0-0-0-0-0-|-0–0-0-0-0-0---7-5--|
 Mississipi
 Up in Memphis


|-----------------|-------------------|-----------------|--------------------|
|-----------------|-------------------|-----------------|--------------------|
|-----------------|-------------------|-----------------|--------------------|
|-0–0-0-0-0-0-0-0-|-0-0-0-0-0-0-5-0-3-|-0-0-0-0-0-0-0-0-|-0–0-0-0-0-0-3-5-6--|
  Mammas dancing
  Mammas babys
                                                        1 + 2 + 3 + a 4 + a
|-----------------|-----------------|-----------------|----------------------|
|-----------------|-----------------|-----------------|----------------------|
|-----------------|-----------------|-----------------|-5-5-5-5-5-------2----|
|-7-7-7-7-7-7-7-7-|-5-5-5-5-5-5-5-5-|-3-3-3-3-3-3-3-3-|-------------0-3---3--|
                                      Always wanting more

% {DS}
  [A]  (chorus)
|-----------------|-----------------|-----------------|--------------------|
|-----------------|-----------------|-----------------|--------------------|
|-----------------|-5-5-5-5-5-5-5-2-|-----------------|---------3-3-3-2----|
|-5-5-5-5-5-5-5-5-|-----------------|-5-5-5-5-5-5-5-5-|-1-1-1-1---------3--|
  Black Velvet                                                      4 + a

                            {TO Coda}      1.          2.
                        {To [B]}
|-----------------|-----------------------|------------||------------------|
|-----------------|-----------------------|-----------o||------------------|
|-----------------|-5-5-5-5-5-5-5-5-------|-3----2----o||-3-3-3-3-2-2-2-2--|
|-5-5-5-5-5-5-5-5-|-----------------------|------------||------------------|
 A new religion                                           Black velvet 


|-----------------|---------------------|-----------------|------------------|
|-----------------|---------------------|-----------------|------------------|
|-----------------|---------2-------2---|-----------------|-2-2-2-2-2-2-2-2--|
|-0-0-0-0-0-0-0-0-|-5-5-5-5---3-0-3---3-|-5-5-5-5-5-5-5-5-|------------------|
 if you please              3 + a 4 + a   Every word

|-------------------|-------------------|-----------------|------------------|
|-------------------|-------------------|-----------------|------------------|
|-------------------|-----------------2-|-----------------|------------------|
|-0-0-0-0-0-0-0-5-3-|-0-0-0-0-0-0-5-0---|-5-5-5-5-5-5-5-5-|-1-1-1-1-1-1-1-1--|
              4 + a               4 + a  In a flash

               ~    
|------------|------------||------------------|--------------------|
|------2-----|------------||o-----------------|--------------------|
|-3-------5--|-3---2h3p2--||o-----------------|--------------------|
|------------|------------||--0-0-0-0-0-0-0-0-|-0-0-0-0-0-0-5-0-3--|
                           (Guitar Solo)
                                                                {D.S. al CODA}
  1.                                      2.                          [To [A] ]
|-----------------|--------------------||-----------------|-------------------|
|-----------------|-------------------o||-----------------|-------------------|
|-----------------|-------------5-----o||-----------------|---------------2---|
|-0-0-0-0-0-0-0-0-|-0-0-0-0-0-0---7-5--||-0-0-0-0-0-0-0-0-|-0-0-0-0-3-3-5---4-|
                          
{* CODA}
[B]                         3 + a 4 + a   (chorus)   
|-----------------|---------------------|-----------------|------------------|
|-----------------|---------------------|-----------------|------------------|
|-3-3-3-3-2-2-2-2-|---------2-------2---|-----------------|-5-5-5-5-5-5-5-5--|
|-----------------|-0-0-0-0---3-0-3---3-|-5-5-5-5-5-5-5-5-|------------------|
 black velvet if you please.....          Black velvet


|-----------------|-------------------|-----------------|-----------------|---------|
|-----------------|-------------------|-----------------|-----------------|---------|
|-----------------|---------3-3-3-2---|-----------------|-5-5-5-5-5-5-5-5-|-3----2--|
|-5-5-5-5-5-5-5-5-|-1-1-1-1---------3-|-5-5-5-5-5-5-5-5-|-----------------|---------|
                                        A new religion

 {Intro/Verse} to the end
||------------------|--------------------||-----------------|--------------------|
||o-----------------|-------------------o||-----------------|--------------------|
||o-----------------|-------------------o||-----------------|--------------------|
||--0-0-0-0-0-0-0-0-|-0-0-0-0-0-0-5-0-3--||-0-0-0-0-0-0-0-0-|-0-0-0-0-0-0-5-0-3--|

|-----------------|---------------------|-----------------|--------------------|
|-----------------|-------------5-------|-----------------|--------------------|
|-----------------|-----------5-------5-|-----------------|--------------------|
|-0-0-0-0-0-0-0-0-|-0-0-0-0-5-----5-7---|-0-0-0-0-0-0-0-0-|-0-0-0-0-0-0-5-0-3--|
                    1 + 2 + 3 + a 4 + a

|-----------------|-------------------|-----------------|--------------------|
|-----------------|-------------------|-----------------|--------------------|
|-----------------|-------------5-----|-----------------|--------------------|
|-0-0-0-0-0-0-0-0-|-0-0-0-0-0-0---7-5-|-0-0-0-0-0-0-0-0-|-0-0-0-0-0-0-5-0-3--|
                                

|-----------------|-------------------------|-----------------|--------------------|
|-----------------|-------5-----4-----------|-----------------|--------------------|
|-----------------|---------5-----5---5---5-|-----------------|--------------------|
|-0-0-0-0-0-0-0-0-|-0-0-0-----7-----7---7---|-0-0-0-0-0-0-0-0-|-0-0-0-0-0-0-5-0-3--|
                    1 + a 2 + a 3 + a 4 + a

|-----------------|--------------------|
|-----------------|--------------------|
|-----------------|-------------5------|
|-0-0-0-0-0-0-0-0-|-0-0-0-0-0-0---7-5--|    Fade to end last 4 measures.
Suggest correction
Give kudos to tab author, rate the tab!
1 2 3 4 5
comments
print report bad tab
guest
You may want to rate the tab now too:
select rating
Wanna post a correction for this tab? Suggest correction