Oops, an error
Loading. Please wait.

Black Velvet Bass Tab

version 3
version 3

Whole song

Interactive

20,575 views 90 this week
no commentswrite comment
1 2 3 4 5
excellent!
x 5
add to favorites
launch autoscroll
font size
0
reset
guitar tuner
Tab Pro tools
  • play this tab
  • loop segment
  • change instrument
  • show fretboard
  • metronome
×
Best way to learn
"Black Velvet"
Autoscroll
slow
fast
+/-
esc
set tempo
stop
Contributor
Difficulty
intermediate
BASSLINE FOR BLACK VELVET
As recorded by Alanah Myles

Transcribed by Michael Raisey
gemini67@globalfreeway.com.au
Edited for 5-string Bass by Robert v. Beilen
Revised and editing by Mark Nolasco 25-08-2009
Standard 5 String tuning: B-E-A-D-G

All credits go to Michael Raisey. Robert V. Beilen changed it for 5 string, I fixed it!

|-------|-----------------|-------------------|-----------------|--------------------|
|-------|-----------------|-------------------|-----------------|--------------------|
|-4-----|-----------------|-------------------|-----------------|-------------4------|
|---6-4-|-–---------------|-------------4---2-|-–---------------|-–-------------6-4--|
|-------|-4-4-4-4-4-4-4-4-|-4-4-4-4-4-4---4---|-4-4-4-4-4-4-4-4-|-4-4-4-4-4-4--------|
  4 + a                     1 + 2 + 3 + 4 + a

||------------------|-------------------|-----------------|------------------------|
||o-----------------|-------------------|-----------------|-----4-----3------------|
||o-----------------|-------------------|-----------------|-------4-----4---4---4--|
||------------------|-------------4---2-|-----------------|---------6-----6---6----|
||--4-4-4-4-4-4-4-4-|-4-4-4-4-4-4---4---|-4-4-4-4-4-4-4-4-|-4-4--------------------|
   Mmmmmm                         4 + a                     1 + 2 + a 3 + a 4 + a

|-----------------|-------------------|-----------------|--------------------|
|-----------------|-------------------|-----------------|--------------------|
|-----------------|-------------------|-----------------|-------------4------|
|-----------------|-------------4---2-|-----------------|---------------6-4--|
|-4-4-4-4-4-4-4-4-|-4-4-4-4-4-4---4---|-4-4-4-4-4-4-4-4-|-4-4-4-4-4-4--------|
 Mississipi
 Up in Memphis


|-----------------|-------------------|-----------------|--------------------|
|-----------------|-------------------|-----------------|--------------------|
|-----------------|-------------------|-----------------|--------------------|
|-----------------|-------------4---2-|-----------------|-------------2-4-5--|
|-4-4-4-4-4-4-4-4-|-4-4-4-4-4-4---4---|-4-4-4-4-4-4-4-4-|-4-4-4-4-4-4--------|
  Mammas dancing
  Mammas babys

                                                        1 + 2 + 3 + a 4 + a
|-----------------|-----------------|-----------------|----------------------|
|-----------------|-----------------|-----------------|----------------------|
|-----------------|-----------------|-----------------|-4-4-4-4-4-------1----|
|-6-6-6-6-6-6-6-6-|-4-4-4-4-4-4-4-4-|-2-2-2-2-2-2-2-2-|---------------2---2--|
|-----------------|-----------------|-----------------|-------------4--------|
                                      Always wanting more


  $
|-----------------|-----------------|-----------------|--------------------|
|-----------------|-----------------|-----------------|--------------------|
|-----------------|-4-4-4-4-4-4-4-1-|-----------------|---------2-2-2-1----|
|-4-4-4-4-4-4-4-4-|-----------------|-4-4-4-4-4-4-4-4-|-----------------2--|
|-----------------|-----------------|-----------------|-5-5-5-5------------|
  Black Velvet                                                      4 + a

                                          1.          2.
                                  To Coda
|-----------------|-----------------------|------------||------------------|
|-----------------|-----------------------|-----------o||------------------|
|-----------------|-4-4-4-4-4-4-4-4-------|-2----1----o||-2-2-2-2-1-1-1-1--|
|-4-4-4-4-4-4-4-4-|-----------------------|------------||------------------|
|-----------------|-----------------------|------------||------------------|
 A new religion                                           Black velvet if you please


|-----------------|---------------------|-----------------|------------------|
|-----------------|---------------------|-----------------|------------------|
|-----------------|---------1-------1---|-----------------|-1-1-1-1-1-1-1-1--|
|-----------------|-----------2---2---2-|-4-4-4-4-4-4-4-4-|------------------|
|-4-4-4-4-4-4-4-4-|-4-4-4-4-----4-------|-----------------|------------------|
                            3 + a 4 + a   Every word





|-------------------|-------------------|-----------------|------------------|
|-------------------|-------------------|-----------------|------------------|
|-------------------|-----------------1-|-----------------|------------------|
|---------------4-2-|-------------4-----|-4-4-4-4-4-4-4-4-|------------------|
|-4-4-4-4-4-4-4-----|-4-4-4-4-4-4---4---|-----------------|-5-5-5-5-5-5-5-5--|
              4 + a               4 + a  In a flash

               ~    
|------------|------------||------------------|--------------------|
|------1-----|------------||o-----------------|--------------------|
|-2-------4--|-2---1h2p1--||o-----------------|--------------------|
|------------|------------||------------------|-------------4---2--|
|------------|------------||--4-4-4-4-4-4-4-4-|-4-4-4-4-4-4---4----|
                           (Guitar Solo)

                                       
  1.                                      2.                      D.S. al Coda
|-----------------|--------------------||-----------------|-------------------|
|-----------------|-------------------o||-----------------|-------------------|
|-----------------|-------------4-----o||-----------------|---------------1---|
|-----------------|---------------6-4--||-----------------|---------2-2-4---2-|
|-4-4-4-4-4-4-4-4-|-4-4-4-4-4-4--------||-4-4-4-4-4-4-4-4-|-4-4-4-4-----------|


 Coda &                     3 + a 4 + a
|-----------------|---------------------|-----------------|------------------|
|-----------------|---------------------|-----------------|------------------|
|-2-2-2-2-1-1-1-1-|---------1-------1---|-----------------|-4-4-4-4-4-4-4-4--|
|-----------------|-----------2---2---2-|-4-4-4-4-4-4-4-4-|------------------|
|-----------------|-4-4-4-4-----4-------|-----------------|------------------|
 black velvet if you please              Black velvet


|-----------------|-------------------|-----------------|-----------------|---------|
|-----------------|-------------------|-----------------|-----------------|---------|
|-----------------|---------2-2-2-1---|-----------------|-4-4-4-4-4-4-4-4-|-2----1--|
|-4-4-4-4-4-4-4-4-|-----------------2-|-4-4-4-4-4-4-4-4-|-----------------|---------|
|-----------------|-5-5-5-5-----------|-----------------|-----------------|---------|
                                        A new religion

||------------------|--------------------||-----------------|--------------------|
||o-----------------|-------------------o||-----------------|--------------------|
||o-----------------|-------------------o||-----------------|--------------------|
||------------------|-------------4---2--||-----------------|-------------4---2--|
||--4-4-4-4-4-4-4-4-|-4-4-4-4-4-4---4----||-4-4-4-4-4-4-4-4-|-4-4-4-4-4-4---4----|


|-----------------|---------------------|-----------------|--------------------|
|-----------------|-------------4-------|-----------------|--------------------|
|-----------------|-----------4-------4-|-----------------|--------------------|
|-----------------|---------4-----4-6---|-----------------|-------------4---2--|
|-4-4-4-4-4-4-4-4-|-4-4-4-4-------------|-4-4-4-4-4-4-4-4-|-4-4-4-4-4-4---4----|

                    1 + 2 + 3 + a 4 + a




|-----------------|-------------------|-----------------|--------------------|
|-----------------|-------------------|-----------------|--------------------|
|-----------------|-------------4-----|-----------------|--------------------|
|-----------------|---------------6-4-|-----------------|-------------4---2--|
|-4-4-4-4-4-4-4-4-|-4-4-4-4-4-4-------|-4-4-4-4-4-4-4-4-|-4-4-4-4-4-4---4----|
                                

|-----------------|------------------------|-----------------|--------------------|
|-----------------|-----4-----3------------|-----------------|--------------------|
|-----------------|-------4-----4---4---4--|-----------------|--------------------|
|-----------------|---------6-----6---6----|-----------------|-------------4---2--|
|-4-4-4-4-4-4-4-4-|-4-4--------------------|-4-4-4-4-4-4-4-4-|-4-4-4-4-4-4---4----|
                        2 & a 3 & a 4 & a

|-----------------|--------------------|
|-----------------|--------------------|
|-----------------|-------------4------|
|-–---------------|-–-------------6-4--|
|-4-4-4-4-4-4-4-4-|-4-4-4-4-4-4--------|    Fade to end

comments
print report bad tab
I want to post or [tab]
guest
You may want to rate the tab now too:
select rating
Please do not post tabs as comments. Select "correction" instead!