Oops, an error
Loading. Please wait.

Black Velvet Bass Tab

version 3
version 3

Whole song

Interactive

4,148 views 63 this week
no commentswrite comment
1 2 3 4 5
x 4
add to favorites
launch autoscroll
font size
0
reset
guitar tuner
Autoscroll
slow
fast
+/-
esc
set tempo
stop
Help us to improve Ultimate-Guitar.com Take our survey!
×
Difficulty
intermediate
------------|----------------|----------------|--------------|----------------|
------------|----------------|----------6---4-|--------------|--------------4-|
-------4----|6--66--66--66-6-|6-66-66-6---6---|6-66--66-66-6-|6-66-66-6-6-4---|
--------4-2-|----------------|----------------|--------------|----------------|

------------|---------------|------------|--------------|
------------|----------6---4|------------|---4--3-------|
6-66-66-66-6|6-66-66-6---6--|6-66-66-66-6|6-6-46-46-4-4-|
------------|---------------|------------|-----------6--|

*****
------------|------------|------------|--------------|
------------|---------6-4|------------|------------4-|
6-66-66-66-6|6-66-66-6-6-|6-66-66-66-6|6-66-66-66-4--|
------------|------------|------------|--------------|

------------|------------|------------|---------2-4--|
------------|---------6-4|------------|--------------|
6-66-66-66-6|6-66-66-6-6-|6-66-66-66-6|6-66-66-6----1|
------------|------------|------------|--------------|

------------|------------|------------|------------3--|
------------|------------|------------|--------------4|
4-44-44-44-4|------------|------------|4-44-44-4-6----|
------------|4-44-44-44-4|2-22-22-22-2|---------------|

------------|------------|------------|------------|
------------|------------|------------|------------|
------------|4-44-44-44-1|------------|------2-221-|
4-44-44-44-4|------------|4-44-44-44-2|0-00-0-----2|
                           1st verse
------------|------------||------------|------------|
------------|------------||------------|------------|
------------|4-44-44-44-4||2-----1-----|6-66-66-66-6|
4-44-44-44-4|------------||------------|------------|

------------|------------|-------------||
---------6-4|------------|---4--3------||
6-66-66-6-6-|6-66-66-66-6|6-6-46-46-4-4||
------------|------------|-----------6-|| BACK TO *****

2ND VERSE ENDING
------------|------------|----------3-|------------|
------------|------------|--------4--4|------------|
2-22-21-1111|6-66-66-66-6|6-66-646-6--|------------|
------------|------------|------------|4-44-44-44-4|

------------|------------|------------|------------|
------------|-----------4|-----------4|------------|
1-11-11-11-1|6-66-66-664-|6-66-66-646-|------------|
------------|------------|------------|4-44-44-44-2|

------------|------------|------------|------------|
------------|-----1------|------------|------------|
------------|2------4--2-|1--------1--|6-66-66-66-4|
0-00-00-00-0|------------|------------|------------|

------------|------------|------------|------------|
---------6-4|------------|-----------4|------------|
6-66-66-6-6-|6-66-66-66-6|6-66-66-644-|6-66-66-66-4|
------------|------------|------------|------------|

------------|------------|------------||
---------6-4|------------|------------||
6-66-66-6-6-|6-66-66-66-6|6-66-64-66-1||
------------|------------|----------2-||

***
------------|------------|------------|------------|
------------|------------|------------|------------|
------------|4-44-44-44-1|------------|------2-221-|
4-44-44-44-4|------------|4-44-44-44-2|0-00-0-----2|
                         |1ST TIME
------------|------------|------------|----------3-|
------------|------------|------------|--------4--4|
------------|4-44-44-44-4|2-22-21-11-1|6-66-646-6--|
4-44-44-44-4|------------|------------|------------|BACK TO ***

2ND TIME
------------|------------|
------------|------------|
2-----1-----|1---------1-|
------------|---------4-4|

REPEAT NEXT BARS TO FADE
------------|------------|--------------|--------------|
------------|---------6-4|--------------|-----------4--|
6-66-66-66-4|6-66-66-6-6-|6-66-66-66-4--|6-66-66-644---|
------------|------------|--------------|--------------|

BLACK VELVET BY ALANNAH MYLES IN E FLAT & 12/8
TRANSCRIBED BY THIRSTBASS
33ryan@fsmail.net
Suggest correction
comments
print report bad tab
guest
You may want to rate the tab now too:
select rating
Wanna post a correction for this tab? Suggest correction