Oops, an error
Loading. Please wait.

Silence Tab

104 views 1 this week
1 commentread comment
1 2 3 4 5
please rate
add to favorites
launch autoscroll
font size
0
reset
how to read this tab
guitar tuner
Tab Pro tools
  • play this tab
  • loop segment
  • change instrument
  • show fretboard
  • metronome
×
Best way to learn
"Silence"
Autoscroll
slow
fast
+/-
esc
set tempo
stop
Contributor
Band: Alarum
Album: Fluid Motion
Song: Silence

Copyright (c) Prey Music, 1999
Version 1.0, 28/6/2006
 
Code:
Suffixes for bend:
fb - full bend       hb - half bend
qb - quarter bend    t - tap bend
r - release bend

Suffixes for harmonic:
^ - pinched harmonic      n – natural harmonic

Suffixes for mute:
. – palm mute            x – staccato mute
, - light palm mute      ; - heavy palm mute

Other:
/ - slide up to            \ - slide down to       
h - hammer on              p - pull off
" - tremolo note           <> - Trill
* - see comment

Tuning: E A D G B E

Riff 1a (0:05)
|----------------------------------------------------------|
|------------------------------------------------------6---|
|------------------------------------------------------7---|
|-------------------------------------------------5555-5---|
|---7-8-7---6-7-6---7-8-7---6-7-6---7-8-7---6-7-6------5---|
|-5-------4-------5-------4-------5-------4----------------|
  . . . . . . . . . . . . . . . . . . . . . . . . ....


Riff 1b (0:10)
|----------------------------------------------------------
|------------------------------------------------------6---
|------------------------------------------------------7---
|-------------------------------------------------5555-5---
|---7-8-7---6-7-6---7-8-7---6-7-6---7-8-7---6-7-6------5---
|-5-------4-------5-------4-------5-------4----------------
  . . . . . . . . . . . . . . . . . . . . . . . . ....

-------------------------|
------6--6--------6--6---|
------7--7--------7--7---|
-5555-5--5---5555-5--5---|
------5--5--------5--5---|
-------------------------|
 .... x      .... x


Riff 1c (0:16)
|------------------------------------------------------------|
|------------------------------------------------------6-6-6-|
|------------------------------------------------------7-7-7-|
|-------------------------------------------------5555-5-5-5-|
|---7-8-7---6-7-6---7-8-7---6-7-6---7-8-7---6-7-6------5-5-5-|
|-5-------4-------5-------4-------5-------4------------------|
  . . . . . . . . . . . . . . . . . . . . . . . . ....


Riff 1d (0:21)
|----------------------------------------------------------
|------------------------------------------------------6---
|------------------------------------------------------7---
|-------------------------------------------------5555-5---
|---7-8-7---6-7-6---7-8-7---6-7-6---7-8-7---6-7-6------5---
|-5-------4-------5-------4-------5-------4----------------
  . . . . . . . . . . . . . . . . . . . . . . . . ....

----------------------------------------------------------|
------6--6--------6--6--------6--------6--6--------6--6---|
------7--7--------7--7--------7--------7--7--------7--7---|
-5555-5--5---5555-5--5---5555-5---5555-5--5---5555-5--5---|
------5--5--------5--5--------5--------5--5--------5--5---|
----------------------------------------------------------|
 .... x      .... x      ....     .... x      .... x


Riff 2a (0:31)
|----------------------------------------------|
|----------------------------------------------|
|----------------------------------------------|
|----------------------------------------------|
|-------------2----------------------------2---|
|-2345234523450---230230-2-3-532356235623560---|
  ............x   ...... . . ..............x

Riff 2b (0:36)
|-----------------------------------------------------------|
|-----------------------------------------------------------|
|-----------------------------------------------------------|
|-----------------------------------------------------------|
|-5-----------53210---------2---5-------------------------2-|
|-3-02350-2-3------3235623560---3-03230-2-3-562356235623560-|
  . ..... . . ..............x   . ..... . . ..............x

Riff 3a (0:42)
                  [x1]                             [x2]
|--------------------|--------------------------------|
|--------------------|--------------------------------|
|--------------------|--------------------------------|
|---------------4----|--------------------------------|
|-5------------------|-5320--3-5320--5-5320--7530-----|
|-3-02350-2-3-5---22-|-----321-----323-----35----2323-|
  . ..... . . . . ..   ......  ......  ..............

Riff 3b (0:49)
|-----------------------121087------------------------------------|
|-----------------------------------------------------------------|
|-----------------------------------------------------------------|
|-----------------------------------------------------------------|
|-5320--3-5320--5-5320------------77555--3--553300--5-553300--7\--|
|-----321-----323-----35------3322----3--1--------333-------33----|
  ......  ....... ......      ........      ........


Riff 2a x 1 (0:55)
Riff 2b x 1 (1:00)
Riff 3a x 1 (1:06)
Riff 3a x 1 (1:13)

Riff 4 (1:20)
   [x1]                                                          [x4]
|-----|-------------------------------------------------------------|
|-----|-------------------------------------------------------------|
|-----|-------------------------------------------------------------|
|-----|-------------------------------------------------------------|
|-7~--|-0-000-0-5-8-5--0-000-0-4-7-4--0-000-0-5-8-5--532-0-------7--|
|-----|----------------------------------------------------3-2-0-5--|
        . ... . . .    . ... . . .    . ... . . .    ... . . . .

Riff 2a x 1 (1:40)
Riff 2b x 1 (1:45)
Riff 3a x 1 (1:51)
Riff 3a x 1 (1:58)
Riff 4 x 1 (2:04)

Riff 5 (2:24) play 4 times
|--------------------------------------------------------------|
|--------------------------------------------------------------|
|--------------------------------------------------------------|
|----------------------------------------------------------2~--|
|---------2-5-2----------2-5-2----------2-5-2----------2-5-----|
|-3-333-3--------2-222-2--------1-111-1--------0-000-0---------|
  . ... . . .    . ... . . .    . ... . . .    . ... . . .


Solo Riff Ia
(2:46)
|---------------------------------------------------------------|
|---------------------------------------------------------------|
|---------------------------------------------------------------|
|---------------------------------------------------------------|
|-2-222-2--2-2-2-2--222-2--2-2-2--------------------------------|
|--------------------------------5-555-5--5-5-5-5--555-5--5-5-5-|
  . ...    . . . .  ...    . . . . ...    . . . .  ...    . . .

Solo Riff Ib
(2:52)
|---------------------------------------------------------------|
|---------------------------------------------------------------|
|---------------------------------------------------------------|
|---------------------------------------------------------------|
|-2-222-2--2-2-2-2--222-2--2-2-2--------------------------------|
|--------------------------------5-555-5--5-5-5-3--333-2--2-2-2-|
  . ...    . . . .  ...    . . . . ...    . . . .  ...    . . .


Solo Riff IIa
(2:57)
|-----------------------------------------------------------------|
|-----------------------------------------------------------------|
|-----------------------------------------------------------------|
|-----------------------------------------------------------------|
|-2222222222222222222222222222222---------------------------------|
|--------------------------------55555555555555555555555555555555-|
  ...............................................................

Solo Riff IIb
(3:03)
|------------------------------------------------------|
|------------------------------------------------------|
|------------------------------------------------------|
|------------------------------------------------------|
|-22222222222222222222222222222227----7--7----7--7-----|
|--------------------------------5----5--5----5--5-----|
  ...............................

Riff 6 (3:08) play twice
|-----------------------------------------------------------------|
|-----------------------------------------------------------------|
|-----------------------------------------------------------------|
|-------------5---------------4---------------3-------------------|
|---------------5---------------4---------------3-----------------|
|-3-333-33333-----2-222-22222-----1-111-11111-----0-000-000-0-000-|
  . ... .....     . ... .....     . ... .....     . ... ... . ...

Riff 2a x 1 (3:32)
Riff 2b x 1 (3:37)
Riff 3a x 1 (3:43)
Riff 3a x 1 (3:50)
Riff 4 x 1 (3:56)
Riff 5 x 1 (4:16)

Fill 1 (4:36) play once, but let last chord ring out
|----------------------------------------------|
|----------------------------------------------|
|----------------------------------------------|
|---------------------4------------------------| gtr 1
|-------------2-------2------------------------|
|-2345234523450---54322------------------------|
  ............x   .....

|----------------------------------------------|
|----------------------------------------------|
|----------------------------------------------|
|---------------------4------------------------|
|-------------2-------2------------------------| gtr 2
|-2345234523450---54322------------------------|
|---------------------0------------------------|
  ............x   .....


End (4:39)
|-------------------------------------------------------------------
|----------3--------------3------------------3--------------3-------
|-------0--------------0------0-----------0--------------0------0---
|----4--------------4------------------4--------------4-------------
|-0--------------0----------------0-2--------------0----------------
|-------------------------------------------------------------------


--------------------------------------------------------------------
------------3--------------3------------------3--------------3------
---------0--------------0------0-----------0--------------0------0--
------4--------------4-------------4----4--------------4------------
-0-2--------------2------------------0--------------0---------------
--------------------------------------------------------------------

------------------------------|
----------0-------------------|
-------0----------------------|
----4-------------------------| Clean guitar
-2----------------------------|
------------------------------|


End of music (5:15)
comments
We did not receive enough feedback on this tab! Please rate:
print report bad tab
1 2 3 4 5
1 comment total.
0 reply
ruker wrote on January 23 2013, 04:06 pm

Whoever this user is, they jacked this tab from www.RiversOfGore.com

Copied exactly, except they removed the actual tabber's name and email, what an ass.

I want to post or [tab]
guest
You may want to rate the tab now too:
select rating
Please do not post tabs as comments. Select "correction" instead!