Oops, an error
Loading. Please wait.

Timi Bhane Tab

version 1
version 1

Whole song

Interactive

2,002 views 1 this week
no commentswrite comment
1 2 3 4 5
please rate
add to favorites
launch autoscroll
font size
0
reset
how to read this tab
guitar tuner
Autoscroll
slow
fast
+/-
esc
set tempo
stop
Help us to improve Ultimate-Guitar.com Take our survey!
×
Author
Difficulty
novice
Song: Timi bhane
Band: Albatross(Nepali)
By: e.coli_33@yahoo.com

E F#7add11 Asus2 E/F#7add11 Asus2 Asus2

Farki Farki Nahera Malai
Farki Farki Nahera Malai
Timi bhane 

E5 E5 EM7/C#5 EM7/C#5 Asus2 F#7add11  Asus2 Asus2


E5 E5 EM7/C#5 EM7/C#5 Asus2 F#7add11  Asus2 Asus2
Aansu Jhare ma Phuchhi Diunla
Aakashko Tara Sabai ma tipera lyaaidiunla
Timi bhane

E5 E5 EM7/C#5 EM7/C#5 Asus2 F#7add11  Asus2 Asus2
Pharkera aau timi gham bani
Badalko maathi ma timilai parkhi basaulaa
Timi bhane 

C#5  B5 C#5 F#5 Asus2  C#5 Asus2  E/F#7add11 Asus2 Asus2  play with Distortion

Lina aba kehi chhaina
Matra yeutai bahana
Dina matra khoji raachhu
Yehi nai mero chahana
Timi bhane 

 
solo...........(E C#5 B5 A sus2 )*2  B5/C#5 Asus2/C#5 B5 Asus2
                                    [........Mute.....................]

E|---------------------------------------------------------------------------------|
B|--12b-12br-9--12p9------9--------------------------------------------------------|
G|-------------------11b----11-9~----------9---------------------------------------|
D|----------------------------------11-9-11--11-9-11~--11-9---9--------------------|
A|----------------------------------------------------------11--11-10-9~-----------|
E|---------------------------------------------------------------------------------|
                          
                                           [.....mute..............]
E|---------------------------------------------------------------------------------|
B|--------------------------12-----------------------------------------------------|
G|---------------8/9-11p9-9b....9rp9-11-9~---------9~---------9~\------------------|
D|--------7-9-11---------------------------11-9-11----11-9-11----------------------|
A|-7-9-11--------------------------------------------------------------------------|
E|---------------------------------------------------------------------------------|

E|-12b-12~-9-12p9---------9---------------12b~---14b..14r\-------------------------|
B|----------------12b-------12-9---------------------------------------------------|
G|---------------------------------11~---------------------------------------------|
D|---------------------------------------------------------------------------------|
A|---------------------------------------------------------------------------------|
E|---------------------------------------------------------------------------------|


                                               [.mute]
E|--12-11--9h11p9-------9----------------------------------------------------------|
B|----------------12------12-9-------9-----------------------12--------------------|
G|-----------------------------11b-----11-9~------------9-11b..rp9--11-9~...\------|
D|----------------------------------------------11-9-11----------------------------|
A|---------------------------------------------------------------------------------|
E|---------------------------------------------------------------------------------|
                                  M M
E|----------------------------------------7-----7------4---------------------------|
B|-5p4---5--7p4--5p4----5-4-----------4-5----4-5---4-5---4-6-4-5-4h5p4---4---------|
G|-----6--------------6-----6-----4-6----------------------------------6-----6-4-6~|
D|---------------------------------------------------------------------------------|
A|---------------------------------------------------------------------------------|
E|---------------------------------------------------------------------------------|

E|--------------------------------4-4-5-5/7--7\5p4--4h5p4----4---------------------|
B|--6~p4---4~----4-5-4h5p4---4-5-7-------------------------7----5-7---5-7b---------|
G|-------6-----6-----------6-------------------------------------------------------|
D|---------------------------------------------------------------------------------|
A|---------------------------------------------------------------------------------|
E|---------------------------------------------------------------------------------| 

 
 E5 E5 EM7/C#5 EM7/C#5 Asus2 F#7add11  Asus2 Asus2
Parkhaalma baserama sochi rahe
Sapana sara mera bilaayeko
chalai paiena
Timi bhane

 E5 E5 EM7/C#5 EM7/C#5 Asus2 F#7add11  Asus2 Asus2
Bheerama ubbhi aba tolai rahe
Sansaar ka sara sukha
Bhulaai aghi hide ma
Timi bhane 

 C#5  B5 C#5 F#5 Asus2  C#5 Asus2  E/F#7add11 Asus2 Asus2  play with Distortion

Lina aba kehi chhaina
Matra yeutai bahana
Dina matra khojeerachhu
Yehi nai mero chahana
Timi bhane 

(Farki Farki Nahera Malai)---8
Timi bhane




well do comment and mail to 
e.coli_33@yahoo.com
Suggest correction
Give kudos to tab author, rate the tab!
1 2 3 4 5
comments
print report bad tab
guest
You may want to rate the tab now too:
select rating
Please do not post tabs as comments. Select "correction" instead!