Oops, an error
Loading. Please wait.

He Set Me Free Tab

678 views 3 this week
1 commentread comment
1 2 3 4 5
please rate
add to favorites
launch autoscroll
font size
0
reset
how to read this tab
guitar tuner
Autoscroll
slow
fast
+/-
esc
set tempo
stop
Help us to improve Ultimate-Guitar.com Take our survey!
×
Author
Difficulty
novice
                                Chorus
_____________________________________________________________________________
e:------------------------------------|-------------------------------------|
B:------------------------------------|---------------------0--0-------0----|
G:-----0--2---3----2--0---0------0----|---------------0------------2-------2|
D:-2--------------------------2-------|-0----0----2-------------------------|
A:------------------------------------|-------------------------------------|
E:------------------------------------|-------------------------------------|
_____________________________________________________________________________
   He set me free,    He set me free,   He broke the bonds of pri-son for me,
                  yes,              And
_____________________________________________________________________________
e:----------------------------------------|--------------------------------||
B:-3---3----0-----------------------------|---------------0---0------------||
G:--------------2---0--0--0-------0-------|--0--0-----0---------2---0---0--||
D:----------------------------2-----------|--------2-----------------------||
A:----------------------------------------|--------------------------------||
E:----------------------------------------|--------------------------------||
_____________________________________________________________________________
   I'm glo-ry bound my Je-sus to see, For   glo-ry to God, He set   me free.
                                
                                Verse 1
_____________________________________________________________________________
e:--------------------------------------|-----------------------------------|
B:------------------0-------------------|-----------------------------------|
G:--------------0------------------0----|-----0----2----3---2--0---0-----0--|
D:--0----0---2----------0---0--2--------|--2--------------------------2-----|
A:--------------------------------------|-----------------------------------|
E:--------------------------------------|-----------------------------------|
_____________________________________________________________________________
   Once like a bird in pri-son I dwelt,   No free-dom from my sor-row I felt,
_____________________________________________________________________________
e:-----------------------|--------------------------------------------------|
B:-----------------0--0--|------------------------------------0---0---------|
G:------------0----------|--------------0-------0---0-----0--------2--0--0--|
D:-0---0--2--------------|--0----0---2------0---------2---------------------|
A:-----------------------|--------------------------------------------------|
E:-----------------------|--------------------------------------------------|
_____________________________________________________________________________
  But Je-sus came and He   list-ened to me And glo-ry to God, He set me free.

                                 Verse 2:
  
  Now I am climb-ing high-er each day, Dark-ness of night has drift-ed a-way,
  My feet are plant-ed on high-er ground,And glo-ry to God I'm home-ward
  bound.
                                 Verse 3:

  Good-bye to sin and things that con-found, Naught of this world shall turn
  me a-round, Daily I'm work-ing, I'm pray-ing too, And glory to God I'm 
  go-ing thru. 
                                 (Chorus x2)


                                             I hope this helped you.
                                             Please leave a comment or
                                             rate my tab.
                                              Thank you and God bless!
Suggest correction
Give kudos to tab author, rate the tab!
1 2 3 4 5
comments
print report bad tab
1 comment total.
0 reply
charles47 10 wrote on May 19 2014, 10:45 am

This is the lead correct? My son plays this and it sounds great.
Could you post the chord progression as well? I would like to know the correct chords to play along....Im not that advanced. :) Thank You!

guest
You may want to rate the tab now too:
select rating
Wanna post a correction for this tab? Suggest correction