Oops, an error
Loading. Please wait.

Spinning Song Tab

796 views 3 this week
no commentswrite comment
1 2 3 4 5
3 more votes to show rating
add to favorites
launch autoscroll
font size
0
reset
how to read this tab
guitar tuner
Autoscroll
slow
fast
+/-
esc
set tempo
stop
Help us to improve Ultimate-Guitar.com Take our survey!
×
Author
Difficulty
intermediate
Name: Spinning Song 
Band/Artist: Albert Ellmenreich

This is a happy little song that is really fun to play and listen to
It's not that hard to play, and has a great feel to it. Try it out!
This is more or less a classic from 1894, written by Albert Ellmenreich.
Here's a site with info about him: http://en.wikipedia.org/wiki/Albert_Ellmenreich

Main Theme Lead Guitar (Standard Tuning) :
E||-------|-------|-------------1--|--L--3--5----|-------------1--|
B||-------|-------|------1-3-1-----|--------6----|------1-3-1--1--|
G||-------|-------|--2-3--------2--|--L--5-------|--2-3--------2--|
D||-------|-------|----------------|-------------|----------------|
A||-------|-------|----------------|-------------|----------------|
E||-------|-------|----------------|-------------|----------------|


  E  E  Q       S S S S E  E     E  E  Q       S S S S E  E     E  E  Q     
--L--0--1----|-------------1--|--L--3--5----|-------------1--|--L--0--1----|
--L--1--1----|------1-3-1-----|--------6----|------1-3-1--1--|--L--1--1----|
--L--3--2----|--2-3--------2--|--L--5-------|--2-3--------2--|--L--3--2----|
-------------|----------------|-------------|----------------|-------------|
-------------|----------------|-------------|----------------|-------------|
-------------|----------------|-------------|----------------|-------------|


  E  E  E  E     E  E  E  E      E   E  E  E     E   E  E  E     E  E  E  E   
-----3-----4--|-----5-----6--|--10---8--6--5--|--3---7--8-----|-----3-----4--|
-----5-----6--|-----7-----8--|--11--10--8--7--|--5---8--8-----|-----5-----6--|
--------------|--------------|----------------|-----10--9-----|--------------|
--------------|--------------|----------------|---------------|--------------|
--------------|--------------|----------------|---------------|--------------|
--------------|--------------|----------------|---------------|--------------|


  E  E  E  E      E   E  E  E     Q    E.  E.  E.  E.     S S S S E  E   
-----5-----6--|--10---8--6--5--|--3----L---------------|-------------1--|
-----7-----8--|--11--10--8--7--|--5----L---------------|------1-3-1-----|
--------------|----------------|-----------5---4---3---|--2-3--------2--|
--------------|----------------|-----------------------|----------------|
--------------|----------------|-----------------------|----------------|
--------------|----------------|-----------------------|----------------|


  E  E  Q       S S S S E  E     E  E  Q       S S S S E  E     E  E  Q     
--L--3--5----|-------------1--|--L--0--1----|-------------1--|--L--3--5----|
--------6----|------1-3-1--1--|--L--1--1----|------1-3-1-----|--------6----|
--L--5-------|--2-3--------2--|--L--3--2----|--2-3--------2--|--L--5-------|
-------------|----------------|-------------|----------------|-------------|
-------------|----------------|-------------|----------------|-------------|
-------------|----------------|-------------|----------------|-------------|


  S S S S E  E     E  E  E  E        
-------------1--|--L--0--1-----|
------1-3-1--1--|--L--1--1-----|
--2-3--------2--|--L--3--2-----|
----------------|--------------|
----------------|--------------|
----------------|--------------|

Main Theme Rhythm Guitar (Drop C Tuning) :
 E  E  E  E     E  E  E  E     E  E  E  E     E  E  E  E     E  E  E  E   
D||--------------|--------------|--------------|--------------|--------------|
G||--------------|--------------|--------------|--------------|--------------|
F||--------------|--------------|--------------|--------------|--------------|
C||--------------|--------------|--------------|--------------|--------------|
G||-----5-----5--|-----5-----5--|-----5-----5--|-----5-----5--|-----5-----5--|
C||--5-----5-----|--5-----5-----|--5-----5-----|--5-----5-----|--5-----5-----|


  E  E  E  E     E  E  E  E     E  E  E  E     E  E  E  E     E  E  E  E   
--------------|--------------|--------------|--------------|--------------|
--------------|--------------|--------------|--------------|--------------|
--------------|--------------|--------------|--------------|--------------|
--------------|--------------|--------------|--------------|--------------|
-----5-----5--|-----5-----5--|-----5-----5--|-----5-----5--|-----5-----5--|
--5-----5-----|--5-----5-----|--5-----5-----|--5-----5-----|--5-----5-----|


  E  E  E  E     E  E  E  E     E  E  E  E     E  E  E  E     E  E  E  E   
--------------|--------------|--------------|--------------|--------------|
--------------|--------------|--------------|--------------|--------------|
--------------|--------------|--------------|--------------|--------------|
--------------|--------------|--------------|--------------|--------------|
-----5-----5--|-----5-----5--|-----5-----5--|-----5-----5--|-----5-----5--|
--0-----0-----|--0-----0-----|--0-----0-----|--0-----0-----|--0-----0-----|


  E  E  E  E     E  E  E  E     Q    Q    Q    Q       E  E  E  E   
--------------|--------------|----------------------|--------------|
--------------|--------------|----------------------|--------------|
--------------|--------------|----------------------|--------------|
--------------|--------------|----------------------|--------------|
-----5-----5--|-----5-----5--|----------------------|-----5-----5--|
--0-----0-----|--0-----0-----|--0-------------------|--5-----5-----|


  E  E  E  E     E  E  E  E     E  E  E  E     E  E  E  E     E  E  E  E   
--------------|--------------|--------------|--------------|--------------|
--------------|--------------|--------------|--------------|--------------|
--------------|--------------|--------------|--------------|--------------|
--------------|--------------|--------------|--------------|--------------|
-----5-----5--|-----5-----5--|-----5-----5--|-----5-----5--|-----5-----5--|
--5-----5-----|--5-----5-----|--5-----5-----|--5-----5-----|--5-----5-----|


  E  E  E  E     E  E  E                                                     
--------------|--------------|
--------------|--------------|
--------------|--------------|
--------------|--------------|
-----5-----5--|-----5--------|
--5-----5-----|--5-----5-----| 

Bridge Pt 1 Lead (Standard Tuning):

  Q.     S S  
|-------------|
|-------------|
|--5------2---|
|-----------3-|
|-------------|
|-------------|


  E  E  Q       Q.     S S    E  E  Q       Q.     S S    E  E  Q     
-------------|-------------|-------------|-------------|-------------|
-------------|-------------|-------------|-------------|-------------|
--5----------|--3------2-0-|-------------|--5------2---|--5----------|
-------------|-------------|--3----------|-----------3-|-------------|
-------------|-------------|-------------|-------------|-------------|
-------------|-------------|-------------|-------------|-------------|


  Q    S S S S    E  E  Q       Q.     S S    E  E  Q       Q.     S S  
---------------|-------------|-------------|-------------|-------------|
---------------|-------------|-------------|-------------|-------------|
--3----L-2-3-0-|-------------|--7------4-0-|--5----------|--5------2---|
---------------|--3----------|-------------|-------------|-----------3-|
---------------|-------------|-------------|-------------|-------------|
---------------|-------------|-------------|-------------|-------------|


  E  E  Q       Q.     S S    E  E  Q       Q    Q       E  E  Q     
-------------|-------------|-------------|------------|-------------|
-------------|-------------|-------------|------------|-------------|
--3----------|--2----------|--0-----2----|--4----1----|--2----------|
-------------|---------4-0-|-------------|------------|-------------|
-------------|-------------|-------------|------------|-------------|
-------------|-------------|-------------|------------|-------------|

Bridge Pt 1 Rhythm (Standard Tuning):
  
   E  E  E  E     E  E  E  E     E  E  E  E    

|--1--1--1--1--|--1--1--1--1--|--1--1--1--1--|
|--4--4--4--4--|--4--4--4--4--|--3--3--3--3--|
|--------------|--------------|--------------|
|--------------|--------------|--------------|
|--------------|--------------|--------------|
|--------------|--------------|--------------|


  E  E  E  E     E  E  E  E     E  E  E  E     E  E  E  E     E  E  E  E   
--1--1--1--1--|--1--1--1--1--|--1--1--1--1--|--1--1--1--1--|--1--1--4--4--|
--3--3--3--3--|--4--4--4--4--|--4--4--4--4--|--3--3--3--3--|--3--3--6--6--|
--------------|--------------|--------------|--------------|--------------|
--------------|--------------|--------------|--------------|--------------|
--------------|--------------|--------------|--------------|--------------|
--------------|--------------|--------------|--------------|--------------|


  E  E  E  E     E  E  E  E     E  E  E  E     E  E  E  E     E  E  E  E   
--3--3--3--3--|--3--3--3--2--|--1--1--1--1--|--1--1--1--1--|--2--2--2--2--|
--6--6--6--6--|--4--4--4--4--|--4--4--4--4--|--3--3--3--3--|--3--3--3--3--|
--------------|--------------|--------------|--------------|--5--5--5--5--|
--------------|--------------|--------------|--------------|--------------|
--------------|--------------|--------------|--------------|--------------|
--------------|--------------|--------------|--------------|--------------|


  E  E  E  E     E  E  E  E     E  E  E  E     E  E  E  E     E  E  E  E   
--3--3--1--1--|--0--0--0--0--|--0--0--0--0--|--------------|--------------|
--3--3--3--3--|--3--3--3--3--|--2-----------|-----3--3--3--|-----2--2--2--|
--4--4--------|--------------|--------------|--------------|-----2--2--2--|
--------------|--------------|--------------|--2--6--6--6--|--2-----------|
--------------|--------------|--------------|--------------|--------------|
--------------|--------------|--------------|--------------|--------------|
 
Bridge Pt 2 Lead (Standard Tuning):
  Q.      S  S    E  E  Q        Q.      S S     E  E  Q        Q.      S S  
--12------10----|--9----------|---------------|--------------|--12------10----|
-------------12-|-------------|--12-----------|--10----------|-------------12-|
---9------------|-------------|----------13-9-|--------------|---9------------|
----------------|-------------|---------------|--------------|----------------|
----------------|-------------|---------------|--------------|----------------|
----------------|-------------|---------------|--------------|----------------|


  E  E  Q        Q.      S S     E   E  E   E     E   E  E   E           
--9----------|---------------|-----------------|----------------|
-------------|--12-----------|--10--10-----11--|------------13--|
-------------|----------13-9-|-----------------|-----12---------|
-------------|---------------|-----------------|----------------|
-------------|---------------|-----------------|----------------|
-------------|---------------|-----------------|----------------|

Bridge Pt 2 Rhythm (Standard Tuning):
  E  E  E  E     E  E  E  E   
|--------------|--------------|
|-----3--3--3--|-----2--2--2--|
|--------------|-----2--2--2--|
|--2--6--6--6--|--2-----------|
|--------------|--------------|
|--------------|--------------|


  E  E  E  E     E  E  E  E     E  E  E  E     E  E  E  E     E  E  E  E   
--------------|--------------|--------------|--------------|--------------|
-----3--3--3--|-----2--2--2--|-----3--3--3--|-----2--2--2--|-----3--3--3--|
-----4--4--4--|-----2--2--2--|--------------|-----2--2--2--|-----4--4--4--|
--2-----------|--2-----------|--2--6--6--6--|--2-----------|--2-----------|
--------------|--------------|--------------|--------------|--------------|
--------------|--------------|--------------|--------------|--------------|


  E  E  E  E     E  E  E  E                      
--------------|--------------|
--2-----------|--------------|
--2-----3-----|--------5-----|
--------------|--5-----------|
--------1-----|--------3-----|
--------------|--3-----------|

End Lead (Standard Tuning):


   E  S S Q       E  S S Q     
|--L----0-1----|--L----0-1----|
|--L--3--------|-----3--------|
|--L--3---2----|--L--3---2----|
|--------------|--------------|
|--------------|--------------|
|--------------|--------------|


  E  S S E  S S    H           H           Q    Q      
--L----0-1----0-|--1--------|--L--------|--L---------||
-----3------3---|-----------|-----------|------------||
--L--3---2--3---|--2--------|--L--------|--L---------||
----------------|-----------|-----------|------------||
----------------|-----------|-----------|------------||
----------------|-----------|-----------|------------||

End Rhythm (Drop C Tuning):

  E  E  E  E     E  E  E  E     E  E  E  E     E  E  E  E     E  E  E  E   
--------------|--------------|--------------|--------------|--------------|
--------------|--------------|--------------|--------------|--------------|
--------------|--------------|--------------|--------------|--------------|
--------------|--------------|--------------|-----5--4--5--|-----5--------|
-----5-----5--|-----5-----5--|-----5-----5--|--------------|--5-----2--5--|
--5-----5-----|--5-----5-----|--5-----5-----|--5-----------|--------------|


  Q    Q      
------------||
------------||
------------||
------------||
------------||
--5---------||

Order
Main Theme 1x
Bridge Pt 1 1x
Bridge Pt 2 1x
Main Theme 1x
End 1x
Suggest correction
Give kudos to tab author, rate the tab!
1 2 3 4 5
comments
print report bad tab
guest
You may want to rate the tab now too:
select rating
Wanna post a correction for this tab? Suggest correction