Oops, an error
Loading. Please wait.

Tausend Tode tab

103 views 1 this week
no commentswrite comment
1 2 3 4 5
3 more votes to show rating
add to favorites
×
Save as Personal and add changes to this tab that will be seen only by you. Learn more ›
×
You can save this tab as Personal to edit and correct it or add notes. All changes will be seen only by you. Learn more »
launch autoscroll
font size
0
reset
how to read this tab
guitar tuner
edit
Autoscroll
slow
fast
+/-
esc
set tempo
stop
Author
Difficulty
[Intro]

   Hm           A            Em           G          
e|------------|------------|------------|------------|
B|------3-----|------2-----|------0-----|------0-----|
G|---------4--|---------2--|---------0--|---------0--|
D|----4-------|----2-------|------------|------------|
A|-2----------|-0----------|----2-------|----2-------|
E|------------|------------|-0----------|-3----------|

   Hm           A            Em           G          |
e|------------|------------|------------|-0----------|
B|------3-----|------2-----|------0-----|------------|
G|---------4--|---------2--|---------0--|------------|
D|----4-------|----2-------|------------|------------|
A|-2----------|-0----------|----2-------|------------|
E|------------|------------|-0----------|------------|


[Verse 1]

   Hm           A            Em           G          
e|------------|------------|------------|------------|
B|------3-----|------2-----|------0-----|------0-----|
G|---------4--|---------2--|---------0--|---------0--|
D|----4-------|----2-------|------------|------------|
A|-2----------|-0----------|----2-------|----2-------|
E|------------|------------|-0----------|-3----------|

   Hm           A            Em           G          
e|------------|------------|------------|------------|
B|------3-----|------2-----|------0-----|------0-----|
G|---------4--|---------2--|---------0--|---------0--|
D|----4-------|----2-------|------------|------------|
A|-2----------|-0----------|----2-------|----2-------|
E|------------|------------|-0----------|-3----------|

   D            A/C#         C2           Em7        
e|------2-----|------0-----|------0-----|------0-----|
B|---------3--|---------2--|---------3--|---------3--|
G|----2-------|------------|------------|------------|
D|-0----------|----2-------|----0-------|----0-------|
A|------------|-4----------|-3----------|-2----------|
E|------------|------------|------------|------------|

   Hm           A            G                       
e|------------|------------|------------|-1----------|
B|------3-----|------2-----|------------|-0----------|
G|---------4--|---------2--|------0--2--|-0----------|
D|----4-------|----2-------|----0-------|-0----------|
A|-2----------|-0----------|------------|-2----------|
E|------------|------------|-3----------|-3----------|

    Hm            A                Em               G
Ich suche tausend Farben, aber sie steh'n mir nicht.
    Hm               A                    Em            G
Ich lauf' in tausend Schuh'n, doch passen tun sie nicht.
    D            A/C#              C2           Em7
Ich singe tausend Töne und hör' die Lieder nicht.
    Hm             A                  G
Ich träume tausend Leben und leb' die Träume nicht.
    Hm           A                 Em            G
Ich sage tausend Worte, doch sie bedeuten nichts.
    Hm             A                  Em          G
Ich spiele tausend Spiele, doch ich gewinne nicht.
    D             A/C#             C2               G
Ich fange tausend Blicke, doch man sieht mich nicht.
    Hm             A                  G
Ich sterbe tausend Tode und leb' mein Leben nicht.


[Chorus]

            E               G6         D2             A2
Ich brauch' Schuhe, die mir passen und Farben die mir steh'n
           E             G6          D2           A2
Ich will Musik in Lieder fassen, die ohne mich verloren geh'n.
                E             G6                      D2           A2
Will nicht nach Ruhm und Ehre trachten, verlier' mich selber nur dabei.
          E              G6         D2             A2
Ich lasse mich von Dir beachten, in Deinem Anseh'n werd' ich frei.


[Verse 2]

   Hm           A            Em           G          
e|------------|------------|------------|------------|
B|------3-----|------2-----|------0-----|------0-----|
G|---------4--|---------2--|---------0--|---------0--|
D|----4-------|----2-------|------------|------------|
A|-2----------|-0----------|----2-------|----2-------|
E|------------|------------|-0----------|-3----------|

   Hm           A            Em           G          
e|------------|------------|------------|------------|
B|------3-----|------2-----|------0-----|------0-----|
G|---------4--|---------2--|---------0--|---------0--|
D|----4-------|----2-------|------------|------------|
A|-2----------|-0----------|----2-------|----2-------|
E|------------|------------|-0----------|-3----------|

   D            A/C#         C2           Em7        
e|------2-----|------0-----|------0-----|------0-----|
B|---------3--|---------2--|---------3--|---------3--|
G|----2-------|------------|------------|------------|
D|-0----------|----2-------|----0-------|----0-------|
A|------------|-4----------|-3----------|-2----------|
E|------------|------------|------------|------------|

   Hm           A            G                       
e|------------|------------|------------|-1----------|
B|------3-----|------2-----|------------|-0----------|
G|---------4--|---------2--|------0--2--|-0----------|
D|----4-------|----2-------|----0-------|-0----------|
A|-2----------|-0----------|------------|-2----------|
E|------------|------------|-3----------|-3----------|

    Hm             A                    Em            G
Ich stelle tausend Fragen und find' die Antwort nicht.
    Hm            A                  Em            G
Ich trage tausend Lasten, doch meine sind es nicht.
    D              A/C#            C2            G
Ich bringe tausend Watt, doch es bedeutet nichts.
    Hm             A                    G
Ich stopfe tausend Löcher und leb' mein Leben nicht.
    Hm            A                  Em          G
Ich hisse tausend Segel und lös' den Anker nicht.
    Hm            A                    Em             G
Ich weine tausend Tränen und kenn' den Ursprung nicht.
    D             A/C#             C2                G
Ich warte tausend mal und hör' den Startschuss nicht.
    Hm             A                  G
Ich sterbe tausend Tode und leb' mein Leben nicht.


[Chorus]

            E               G6         D2             A2
Ich brauch' Schuhe, die mir passen und Farben die mir steh'n
           E             G6          D2           A2
Ich will Musik in Lieder fassen, die ohne mich verloren geh'n.
                E             G6                      D2           A2
Will nicht nach Ruhm und Ehre trachten, verlier' mich selber nur dabei.
          E              G6         D2             A2
Ich lasse mich von Dir beachten, in Deinem Anseh'n werd' ich frei.


[Instrumental]

E     G6    D2     A2


[Bridge]

    G/H                           Cadd9
Und wenn ich nur von Deiner Gnade Zeuge bin auf meinem Weg,
  G/H                        Cadd9
Erreiche ich die Zielgerade, weil mich Deine Liebe trägt.
    G/H                           Cadd9
Und wenn ich nur von Deiner Gnade Zeuge bin auf meinem Weg,
  G/H                        Cadd9
Erreiche ich die Zielgerade, weil mich Deine Liebe trägt.


[Outro]

   Hm           A            Em           G          
e|------------|------------|------------|------------|
B|------3-----|------2-----|------0-----|------0-----|
G|---------4--|---------2--|---------0--|---------0--|
D|----4-------|----2-------|------------|------------|
A|-2----------|-0----------|----2-------|----2-------|
E|------------|------------|-0----------|-3----------|

   Hm           A            Em           G          
e|------------|------------|------------|------------|
B|------3-----|------2-----|------0-----|------0-----|
G|---------4--|---------2--|---------0--|---------0--|
D|----4-------|----2-------|------------|------------|
A|-2----------|-0----------|----2-------|----2-------|
E|------------|------------|-0----------|-3----------|

   D            A/C#         C2           Em7        
e|------2-----|------0-----|------0-----|------0-----|
B|---------3--|---------2--|---------3--|---------3--|
G|----2-------|------------|------------|------------|
D|-0----------|----2-------|----0-------|----0-------|
A|------------|-4----------|-3----------|-2----------|
E|------------|------------|------------|------------|

   Hm           A            G                       
e|------------|------------|------------|-1----------|
B|------3-----|------2-----|------------|-0----------|
G|---------4--|---------2--|------0--2--|-0----------|
D|----4-------|----2-------|----0-------|-0----------|
A|-2----------|-0----------|------------|-2----------|
E|------------|------------|-3----------|-3----------|

    Hm         A                  Em          G
Ich gehe meine Schritte und lasse Spuren dort.
    Hm          A                Em           G
Ich finde meine Farben an meinem Zufluchtsort.
    D           A/C#               C2             G
Ich hisse meine Segel und hab Dich selbst an Bord.
    Hm              A                G        Fin
Und Du besiegst den Tod, Du bist die Antwort.



CHORDS

Hm  024430     A     002220     Em 022000     G  320003
D   000232     A/C#  042220     C2 032030     
E   022100     G6    320000     D2 000230     A2 002200
G/H 320033     Cadd9 032033

            
            
Suggest correction
Creating personal tab
Creating personal tab
You can edit any tab online and save it as your Personal.

You can edit, replace or remove any tab part or add personal notes – all changes will be seen only by you.

Personal tabs can be accessed anytime from any device, even offline.
Learn more »
Give kudos to tab author, rate the tab!
1 2 3 4 5
comments
print report bad tab
guest
You may want to rate the tab now too:
select rating
Wanna post a correction for this tab? Suggest correction