Oops, an error
Loading. Please wait.

Back To The 101 Tab

version 1
version 1

Whole song

Interactive

3,957 views 6 this week
no commentswrite comment
1 2 3 4 5
please rate
add to favorites
launch autoscroll
font size
0
reset
how to read this tab
guitar tuner
Tab Pro tools
  • play this tab
  • loop segment
  • change instrument
  • show fretboard
  • metronome
×
Best way to learn
"Back To The 101"
Autoscroll
slow
fast
+/-
esc
set tempo
stop
Contributor
Difficulty
novice


   Back to 101 - Albert Hammond Junior

 This song is reli easy and is just as good anything the strokes have    ever done..............enjoy

Riff
e|---2--4-2-4--2--4-2-4--2--4-2-4--5--4--5-4-2-(0-or-----|
B|-------------------------------------------------5-)---|
G|-------------------------------------------------------|
D|-------------------------------------------------------|
A|-------------------------------------------------------|
E|-------------------------------------------------------|

e|---7--------7---------7----------4--------4h5-4--2h4-2-|
B|-------5---------5----------5--------------------------|
G|-------------------------------------------------------|
D|-------------------------------------------------------|
A|-------------------------------------------------------|
E|-------------------------------------------------------|

Chords played underneath riff
e|-------------------------------------------------------|
b|-------------------------------------------------------|
g|----9----6----4----2---9----2----4---------------------|
d|----9-x8-6-x8-4-x8-2---9-x8-2-x4-4-x4------------------|
a|----7----4----2----0---7----0----2---------------------|
E|-------------------------------------------------------|

Verse Chords
e|-------------------------------------------------------|
B|-------------------------------------------------------|
G|---7-----9---------------------------------------------|
D|---7-x8--9-x8--repeat this till chorus-----------------|
A|---5-----7---------------------------------------------|
E|-------------------------------------------------------|

e|-------------------------------------------------------|
B|--2-2--4-4----44444444444444---------------------------|
G|---2-2--4-4--------------------fill before chorus------|
D|-------------------------------------------------------|
A|-------------------------------------------------------|
E|-------------------------------------------------------|

    Chorus
e|---2--4-2-4--2--4-2-4--2--4-2-4--5--4--5-4-2-(0-or-----|
B|-------------------------------------------------5-)---|
G|----------------Play This-x2---------------------------|
D|-------------------------------------------------------|
A|-------------------------------------------------------|
E|-------------------------------------------------------|

e|---7--------7---------7----------4--------4h5-4--2h4-2-|
B|-------5---------5----------5--------------------------|
G|-------------------------------------------------------|
D|-----------------Play This x2--------------------------|
A|-------------------------------------------------------|
E|-------------------------------------------------------|

   Chorus Chords
e|-------------------------------------------------------|
b|-------------------------------------------------------|
g|----9----6----4----2---9----2----4---------------------|
d|----9-x8-6-x8-4-x8-2---9-x8-2-x4-4-x4------------------|
a|----7----4----2----0---7----0----2---------------------|
E|-------------------------------------------------------|

 2nd Verse the same cept play this over the verse chords
   A    B   A    B    A   B    A   B ......
e|-------------------------------------------------------|
B|----2---2---4---4------x4 -----------------------------|
G|-----2---2----4---4------------------------------------|
D|-------------------------------------------------------|
A|-------------------------------------------------------|
E|-------------------------------------------------------|

  then the fill before the chorus
e|-------------------------------------------------------|
B|--2-2--4-4----44444444444444---------------------------|
G|---2-2--4-4--------------------------------------------|
D|-------------------------------------------------------|
A|-------------------------------------------------------|
E|-------------------------------------------------------|

Chorus Chords
e|-------------------------------------------------------|
b|-------------------------------------------------------|
g|----9----6----4----2---9----2----4---------------------|
d|----9-x8-6-x8-4-x8-2---9-x8-2-x4-4-x4------------------|
a|----7----4----2----0---7----0----2---------------------|
E|-------------------------------------------------------|

  Break
e|-------------------------------------------------------------------------|
B|----9-----9--------------------------9--9--9----9------------------------|
G|----9-----9----8---------------------9--9--9----9--8---------------------|
D|----9-----9----8----5--5-----7---9---9--9--9----9--8--5--5--5-----7------|
A|----7-----7----6----5--5-----7---9---7--7--7----7--6--5--5--5-----7------|
E|--------------------7--7-----5---7--------------------7--7--7-----5------|

3rd Verse  A     B     A     B    A    B    A    B....

e|-------------------------------------------------------|
B|----2---2---4---4------x4 -----------------------------|
G|-----2---2----4---4------------------------------------|
D|-------------------------------------------------------|
A|-------------------------------------------------------|
E|-------------------------------------------------------|

then the fill before the chorus
e|-------------------------------------------------------|
B|--2-2--4-4----44444444444444---------------------------|
G|---2-2--4-4--------------------------------------------|
D|-------------------------------------------------------|
A|-------------------------------------------------------|
E|-------------------------------------------------------|

      SOLO
e|---------------------------------------------------------------------|
b|--------5-5-4-4--------5-5-4-4--------5-5-4-4-------5-5-4-4----------|
g|----------------1-1--1---------2-2--2---------2-2-2------------------|
d|-2-2--2--------------------------------------------------------------|
a|---------------------------------------------------------------------|
E|---------------------------------------------------------------------|

Play x2 but change the last section of the solo for this:
e|---------------|
b|-----7-7-5-5-4-|
g|-4-4-----------|
d|---------------|
a|---------------|
E|---------------|

SOLO BACKING CHORDS
e|---------------------------------|
B|---------------------------------|
G|---------------------------------|
D|---2--2----6--6----7--7----9-----|
A|---2--2----6--6----7--7----9-----|
E|---0--0----4--4----5--5----7-----|


CHORUS is the same cept

ON THE 2ND TIME YOU CHANGE THE END LIKE THIS just befor the key changes

e|-7---7-----7-----4-4h5p4-2h4p2-0h2p0-------|
b|---5---5-----5-----------------------4h5p4-|
g|-------------------------------------------|
d|-------------------------------------------|
a|-------------------------------------------|
E|-------------------------------------------|

this is the key change play this till just before the end when you finish on
e|--------------------------------------------|--------------------------|
b|-6-8-6-8--6-8-6-8--6-8-6-8-9-8--9-8-6-------|--------------------------|
g|--------------------------------------8-----|------------8--8----------|
d|--------------------------------------------|--------------------------|
a|--------------------------------------------|--------------------------|
E|--------------------------------------------|--------------------------|

Cheers if u wanna contact me my addy is whydontyoulikethefatgutairist@hotmail.com thx ben
comments
We did not receive enough feedback on this tab! Please rate:
print report bad tab
1 2 3 4 5
I want to post or [tab]
guest
You may want to rate the tab now too:
select rating
Please do not post tabs as comments. Select "correction" instead!