Oops, an error
Loading. Please wait.

Bargain Of The Century tab

version 2
version 2

Whole song

3,943 views 1 this week
1 commentread comment
1 2 3 4 5
x 7
add to favorites
×
Save as Personal and add changes to this tab that will be seen only by you. Learn more ›
×
You can save this tab as Personal to edit and correct it or add notes. All changes will be seen only by you. Learn more »
launch autoscroll
font size
0
reset
how to read this tab
guitar tuner
edit
Autoscroll
slow
fast
+/-
esc
set tempo
stop
Author
Amazing song. Definitely one of my favorites on the album.

(Intro)
e|-------------------------------------------------------------------|
B|-------------------------------------------------------------------|
G|-------------------------------------------------------------------|
D|-------------------------------------------------------------------|
A|--0-0-0-0-0-(Just repeat until the rest of the instruments join in)|
E|-------------------------------------------------------------------|

(Intro riff/Chorus riff)

e|---------------------------------------------------------------|
B|---------------------------------------------------------------|
G|---------------------------------------------------------------|
D|-----11-------11------7-----6------2------2------2------2------|
A|--12----12-11----11-9---9-7---7--4---4--4---4--4---4--4---4----|
E|---------------------------------------------------------------|


(Chords)

e|---5--5--5--5--5--5--5--5-----4--4--4--4--4--4--4--4-----------------|
B|---5--5--5--5--5--5--5--5-----5--5--5--5--5--5--5--5-----------------|
G|---6--6--6--6--6--6--6--6-----6--6--6--6--6--6--6--6-----------------|
D|---7--7--7--7--7--7--7--7-----6--6--6--6--6--6--6--6-----------------|
A|---7--7--7--7--7--7--7--7-----4--4--4--4--4--4--4--4-----------------|
E|---5--5--5--5--5--5--5--5--------------------------------------------|


e|---2--2--2--2--2--2--2--2-----4--4--4--4--4--4--4--4--------------|
B|---2--2--2--2--2--2--2--2-----4--4--4--4--4--4--4--4--------------|
G|---2--2--2--2--2--2--2--2-----4--4--4--4--4--4--4--4--------------|
D|---4--4--4--4--4--4--4--4-----6--6--6--6--6--6--6--6--------------|
A|---4--4--4--4--4--4--4--4-----6--6--6--6--6--6--6--6--------------|
E|---2--2--2--2--2--2--2--2-----4--4--4--4--4--4--4--4--------------|


e|---4---4---4---4-----------------------------------------------|
B|---5---5---5---5-----------------------------------------------|
G|---6---6---6---6-----------------------------------------------|
D|---6---6---6---6-----------------------------------------------|
A|---4---4---4---4-----------------------------------------------|
E|---------------------------------------------------------------|

(riff played during verse 1 and 2)

e|---------------------------------------------------------------|
B|---------------------------------------------------------------|
G|-4-2-1-2--1-2--4-2-1-2--1-2--2/6-4-2-4--2-4-4/7----------------|
D|-------------------------------------------------6b------------|
A|---------------------------------------------------------------|
E|---------------------------------------------------------------|

(Solo)
I'm sorry if the solo is a confusing. I'm not an experienced tabber.

For this part with the weird effect that leads into the solo.
I don't have any effects pedals or anything like that, so I just put the tone on my 
all the way down.
e|---------------------------------------------------------------------|
B|---------------------------------------------------------------------|
G|---------------------------------------------------------------------|
D|-11--12-11---9/11/14---14/16-----------------------------------------|
A|---------------------------------------------------------------------|
E|---------------------------------------------------------------------|


e|---------------------------------------------------------------------|
B|-----------------------------------------2---------------------------|
G|--6------------2--------2--4b-4--2h4-2h4-----------------------------|
D|----4-4--4-2-4---4-4--4---------------------4------------------------|
A|---------------------------------------------------------------------|
E|---------------------------------------------------------------------|


e|--------------------------------------------------------------------------|
B|-----------------------------------------------------3p2h3p2h3p2h3p2------|
G|----2-4b-4-2h4-2h4-4b-4-2h4-2h4--4b-4--2-4-2-4b-4-2-----------------------|
D|--4-----------------------------------------------------------------------|
A|--------------------------------------------------------------------------|
E|--------------------------------------------------------------------------|

e|---------------9------------5--------5-7b-7--5h7-5h7--9-------------------|
B|--10-9-7---------7-7--7-5-7---7-7--7---------------------7----------------|
G|---------9-6--------------------------------------------------------------|
D|--------------------------------------------------------------------------|
A|--------------------------------------------------------------------------|
E|--------------------------------------------------------------------------|

e|--7b-7--5h7-5h7--9------------9-----9-----9-------------------------------|
B|-------------------7---10-12b---12b---12b---12-10-9-10-9-10---------------|
G|--------------------------------------------------------------------------|
D|--------------------------------------------------------------------------|
A|--------------------------------------------------------------------------|
E|--------------------------------------------------------------------------|

e|------14-14------14-14------14-14-----14-14-----14-14-14----14/-----------|
B|--17b--------17b--------17b-------17b-------17b-------------17/-----------|
G|--------------------------------------------------------------------------|
D|--------------------------------------------------------------------------|
A|--------------------------------------------------------------------------|
E|--------------------------------------------------------------------------|
Suggest correction
Creating personal tab
Creating personal tab
You can edit any tab online and save it as your Personal.

You can edit, replace or remove any tab part or add personal notes – all changes will be seen only by you.

Personal tabs can be accessed anytime from any device, even offline.
Learn more »
comments
print report bad tab
1 comment total.
0 reply
Jezz13 10 Aug 28, 2010 09:35 PM

Hey dude
you should make a tab in Guitar Pro :D

guest
You may want to rate the tab now too:
select rating
Wanna post a correction for this tab? Suggest correction