Oops, an error
Loading. Please wait.

Blue Skies tab

12,547 views 9 this week
3 commentsread comments
1 2 3 4 5
x 7
add to favorites
×
Save as Personal and add changes to this tab that will be seen only by you. Learn more ›
×
You can save this tab as Personal to edit and correct it or add notes. All changes will be seen only by you. Learn more »
launch autoscroll
font size
0
reset
how to read this tab
guitar tuner
edit
Autoscroll
slow
fast
+/-
esc
set tempo
stop
Author
Difficulty
By: Akonite

Verse
e|-2-22-22-2-22-22--2-22-22-2-22-22-|
B|-3-33-33-3-33-33--3-33-33-3-33-33-|
G|-2-22-22-2-22-22--4-44-44-4-44-44-|
D|----------------------------------|
A|----------------------------------|
E|----------------------------------|

e|-2-22-22-2-22-22------------------|
B|-3-33-33-3-33-33--2-22-22-2-22-22-|
G|-2-22-22-2-22-22--2-22-22-2-22-22-|
D|------------------2-22-22-2-22-22-|
A|----------------------------------|
E|----------------------------------|

e|-2-22-22-2-22-22--2-22-22-2-22-22-|
B|-3-33-33-3-33-33--3-33-33-3-33-33-|
G|-2-22-22-2-22-22--4-44-44-4-44-44-|
D|----------------------------------|
A|----------------------------------|
E|----------------------------------|

e|-2-22-22----------2-22-22---|
B|-3-33-33-2-22-22--3-33-33---|
G|-2-22-22-2-22-22--2-22-22---|
D|---------2-22-22------------|
A|----------------------------|
E|----------------------------|

Chorus
e|----------------------------------2-22-22-0h2-22-22-0h2-22-22-2-22-22--|
B|----------------------------------3-33-33-3---33-33-3---33-33-3-33-33--|
G|----------------------------------2-22-22-2---22-22-2---22-22-2-22-22--|
D|-2-22-22-2-22-22-2-22-22-2-22-22--0-00-00-0---00-00-0---00-00-0-00-00--|
A|-2-22-22-2-22-22-2-22-22-2-22-22---------------------------------------|
E|-0-00-00-0-00-00-0-00-00-0-00-00---------------------------------------|x2

e|-----------------------------------|
B|------------------2-22-22-2-22-22--|
G|------------------2-22-22-2-22-22--|
D|-2-22-22-2-22-22--2-22-22-2-22-22--|
A|-2-22-22-2-22-22--0-00-00-0-00-00--|
E|-0-00-00-0-00-00-------------------|

Verse
e|-2-22-22-2-22-22--2-22-22-2-22-22-|
B|-3-33-33-3-33-33--3-33-33-3-33-33-|
G|-2-22-22-2-22-22--4-44-44-4-44-44-|
D|----------------------------------|
A|----------------------------------|
E|----------------------------------|

e|-2-22-22-2-22-22------------------|
B|-3-33-33-3-33-33--2-22-22-2-22-22-|
G|-2-22-22-2-22-22--2-22-22-2-22-22-|
D|------------------2-22-22-2-22-22-|
A|----------------------------------|
E|----------------------------------|

e|-2-22-22-2-22-22--2-22-22-2-22-22-|
B|-3-33-33-3-33-33--3-33-33-3-33-33-|
G|-2-22-22-2-22-22--4-44-44-4-44-44-|
D|----------------------------------|
A|----------------------------------|
E|----------------------------------|

e|-2-22-22----------2-22-22---|
B|-3-33-33-2-22-22--3-33-33---|
G|-2-22-22-2-22-22--2-22-22---|
D|---------2-22-22------------|
A|----------------------------|
E|----------------------------|

Chorus
e|----------------------------------2-22-22-0h2-22-22-0h2-22-22-2-22-22--|
B|----------------------------------3-33-33-3---33-33-3---33-33-3-33-33--|
G|----------------------------------2-22-22-2---22-22-2---22-22-2-22-22--|
D|-2-22-22-2-22-22-2-22-22-2-22-22--0-00-00-0---00-00-0---00-00-0-00-00--|
A|-2-22-22-2-22-22-2-22-22-2-22-22---------------------------------------|
E|-0-00-00-0-00-00-0-00-00-0-00-00---------------------------------------|x2

e|-----------------------------------|
B|------------------2-22-22-2-22-22--|
G|------------------2-22-22-2-22-22--|
D|-2-22-22-2-22-22--2-22-22-2-22-22--|
A|-2-22-22-2-22-22--0-00-00-0-00-00--|
E|-0-00-00-0-00-00-------------------|

Refrain
e|-3-2-0-2—-2-0-----2-0-----2-0-----3-2-0-2--2-0-------------|
B|-------------3-5-----3-5-----3-0--------------3-5-7-8-10---|
G|-----------------------------------------------------------|
D|-----------------------------------------------------------|
A|-----------------------------------------------------------|
E|-----------------------------------------------------------|

Verse
e|-2-22-22-2-22-22--2-22-22-2-22-22-|
B|-3-33-33-3-33-33--3-33-33-3-33-33-|
G|-2-22-22-2-22-22--4-44-44-4-44-44-|
D|----------------------------------|
A|----------------------------------|
E|----------------------------------|

e|-2-22-22-2-22-22------------------|
B|-3-33-33-3-33-33--2-22-22-2-22-22-|
G|-2-22-22-2-22-22--2-22-22-2-22-22-|
D|------------------2-22-22-2-22-22-|
A|----------------------------------|
E|----------------------------------|

e|-2-22-22-2-22-22--2-22-22-2-22-22-|
B|-3-33-33-3-33-33--3-33-33-3-33-33-|
G|-2-22-22-2-22-22--4-44-44-4-44-44-|
D|----------------------------------|
A|----------------------------------|
E|----------------------------------|

e|-2-22-22----------2-22-22----|
B|-3-33-33--2-22-22--3-33-33---|
G|-2-22-22--2-22-22--2-22-22---|
D|----------2-22-22------------|
A|-----------------------------|
E|-----------------------------|

Chorus(Drums Kick In)
e|----------------------------------2-22-22-0h2-22-22-0h2-22-22-2-22-22--|
B|----------------------------------3-33-33-3---33-33-3---33-33-3-33-33--|
G|----------------------------------2-22-22-2---22-22-2---22-22-2-22-22--|
D|-2-22-22-2-22-22-2-22-22-2-22-22--0-00-00-0---00-00-0---00-00-0-00-00--|
A|-2-22-22-2-22-22-2-22-22-2-22-22---------------------------------------|
E|-0-00-00-0-00-00-0-00-00-0-00-00---------------------------------------|x2
                                          Finishing Note
e|-----------------------------------|   e|-2-|
B|------------------2-22-22-2-22-22--|   B|-3-|
G|------------------2-22-22-2-22-22--|   G|-2-|
D|-2-22-22-2-22-22--2-22-22-2-22-22--|   D|-0-|
A|-2-22-22-2-22-22--0-00-00-0-00-00--|   A|---|
E|-0-00-00-0-00-00-------------------|x2 E|---|


 

            
            
Suggest correction
Creating personal tab
Creating personal tab
You can edit any tab online and save it as your Personal.

You can edit, replace or remove any tab part or add personal notes – all changes will be seen only by you.

Personal tabs can be accessed anytime from any device, even offline.
Learn more »
comments
print report bad tab
3 comments total.
0 reply
sotoonfire 20 Oct 23, 2006 04:24 PM

Once again, You're amazing akonite!

0 reply
sotoonfire 20 Nov 07, 2006 05:10 PM

i take that back


your absolutely FUCKING AMAZING
if i could only meet you in person
your a god and i would bang you if i could

0 reply
lyricalwax 10 Aug 25, 2010 01:00 AM

muy bien, excelente

guest
You may want to rate the tab now too:
select rating
Wanna post a correction for this tab? Suggest correction