Oops, an error
Loading. Please wait.

Caught By My Shadow tab

version 1
version 1

Whole song

1,795 views 42 this week
1 commentread comment
1 2 3 4 5
x 3
add to favorites
×
Save as Personal and add changes to this tab that will be seen only by you. Learn more ›
×
You can save this tab as Personal to edit and correct it or add notes. All changes will be seen only by you. Learn more »
launch autoscroll
font size
0
reset
how to read this tab
guitar tuner
edit
Autoscroll
slow
fast
+/-
esc
set tempo
stop
Author
Difficulty
-------------------------------------------------------------------------------
                              Caught By My Shadow- Albert Hammond, Jr.
-------------------------------------------------------------------------------

Tabbed by: Alex Becker

Email: Beckeralex46@gmail.com

Tuning: Standard



Only the lead is tabbed here.



Intro: (Watch this 7, it's on the E in the verse and the A ONLY in the intro).
e|-----------------------------------------↓---------------------------------|
B|-----------------------------------------↓---------------------------------|
G|-----------------------------------------↓---------------------------------|
D|-----------------------------------------↓---------------------------------| 
A|-------------7--------------------7-6----7---------7-9-10-9-7--------------| x1
E|--8---8-7--------0-0-0--------8-8------7-------0---------------------------|

e|---------------------------------------------------------------------------|
B|---------------------------------------------------------------------------|
G|---------------------------------------------------------------------------|
D|---------------------------------------------------------------------------|
A|-------------7-----7\--------------7-6---------7---7-9-10-7----------------|  x1
E|--8---8-7------0-------0-------8-8------7-7------0-------------------------|





Verse:                                     ↓(Changes to 7 on E after Intro)
e|-----------------------------------------↓---------------------------------|
B|-----------------------------------------↓---------------------------------|
G|-----------------------------------------↓---------------------------------|
D|-----------------------------------------↓---------------------------------|
A|-------------7--------------------7-6----↓--------7-9-10-9-7---------------| 
E|--8---8-7--------0-0-0--------8-8------7-7------0--------------------------|

e|---------------------------------------------------------------------------|
B|---------------------------------------------------------------------------|
G|---------------------------------------------------------------------------|
D|---------------------------------------------------------------------------|
A|-------------7-----7\--------------7-6---------7---7-9-10-7----------------|
E|--8---8-7------0-------0-------8-8------7-7------0-------------------------|





Chorus (Palm Muted)                               End of Chorus (Played Twice)
e|-----------------------------------------|----------------------------------|
B|-----------------------------------------|----------------------------------|
G|-----------------------------------------|----16-16--14-14------------------|
D|-16-16--17-17--16-16--14-14-(repeated)---|------------------17-17--16-16----|  
A|-----------------------------------------|----------------------------------|
E|-----------------------------------------|----------------------------------|





Bridge(repeat a bunch of times, Final run is tabbed below)
e|---------------------------------------------------------------------------|
B|-17------17-19------19-20-----20-19--------19(This 19 leads into the 1st 17) 
G|-----17--------17----------17--------17------------------------------------|  
D|---------------------------------------------------------------------------| 
A|---------------------------------------------------------------------------|
E|---------------------------------------------------------------------------|

Final Run of Bridge
e|---------------------------------------------------------------------------|
B|-17------17-19------19-20-----20-19--------20------------------------------|
G|-----17--------17----------17--------17-----------16-16-16-16--(with delay)|
D|---------------------------------------------------------------------------|
A|---------------------------------------------------------------------------|
E|---------------------------------------------------------------------------|





Solo
e|-------------------------88888--77777--------------------------------------|
B|--8h10p8---8h10b12---------------------------------------------------------|
G|---------9-----------------------------------------------------------------|
D|---------------------------------------------------------------------------|
A|---------------------------------------------------------------------------|
E|---------------------------------------------------------------------------|


e|---------------------------------------------------------------------------|
B|----7-8-10-8-7------7-8-10-8-7------7-8-10-8-7-----------------------------|
G|-9---------------9---------------9-----------------------------------------|
D|---------------------------------------------------------------------------|
A|---------------------------------------------------------------------------|
E|---------------------------------------------------------------------------|


e|---88888-77777---1515151515-1414141414-------------------------------------|
B|---------------------------------------------------------------------------|
G|---------------------------------------------------------------------------|
D|---------------------------------------------------------------------------|
A|---------------------------------------------------------------------------|
E|---------------------------------------------------------------------------|





Ending
e|---------------------------------------------------------------------------|
B|---------------------------------------------------------------------------|
G|---------------------------------------------------------------------------|
D|---------------------------------------------------------------------------|
A|---------------------------------------------------------------------------|
E|--5-6-7-6-5---3---(Repeated)---------5-6-7-6-5---3-----0(12)---------------|

************************************

| /   slide up
| \   slide down
| h   hammer-on
| p   pull-off
| ~   vibrato
| +   harmonic
| x   Mute note
| b   Bend

************************************

            
            
Suggest correction
Creating personal tab
Creating personal tab
You can edit any tab online and save it as your Personal.

You can edit, replace or remove any tab part or add personal notes – all changes will be seen only by you.

Personal tabs can be accessed anytime from any device, even offline.
Learn more »
Give kudos to tab author, rate the tab!
1 2 3 4 5
comments
print report bad tab
1 comment total.
0 reply
olafburing 10 Jan 06, 2017 04:42 AM

Finally I can play the solo, I've been trying to find out the notes on my own for Days. Thanks!

guest
You may want to rate the tab now too:
select rating
Wanna post a correction for this tab? Suggest correction