Oops, an error
Loading. Please wait.

Coming To Getcha chords

857 views 3 this week
1 commentread comment
1 2 3 4 5
x 3
add to favorites
×
Save as Personal and add changes to this tab that will be seen only by you. Learn more ›
×
You can save this tab as Personal to edit and correct it or add notes. All changes will be seen only by you. Learn more »
launch autoscroll
font size
0
reset
transpose
0
reset
display chords
guitar tuner
edit
Autoscroll
slow
fast
+/-
esc
set tempo
stop
Author
Difficulty
Strumming
There is no strumming pattern for this song yet. and get +5 IQ
Song: Coming to getcha
Artist: Albert Hammond Jr.
Album: Momentary Masters
Tab by Franco Montivero

(Intro F - Dm)
Verse 1:

Bb
One day soon you'll have to leave
Gm
One day soon you'll have to excuse me

(Riff 1 and Chords Bb - Gm)

Verse 2:
F
They're coming to getcha
Dm
Your knife's in the dresser

Bb
So perfect for fighting
Riff 1
Gm
So perfect for hiding

F
The anger won't letcha
Dm
You'll scream but they'll getcha
Bb
One day soon you'll have to leave
Gm
Need are not quite a belief

(Chorus with Riff 2 also with variation)

Bb                       Gm           C
It happens in a space no word has entered
Bb                       Gm           C
Over my shoulder I scream over and over
Bb                       Gm           C
She say's in dreams you are never 80
Bb                       Gm           C
A 1000 doors a 1000 different memories
Bb                       Gm           C
What's that I hear just fool that felt it
Bb                       Gm           C
She never made it back, she's stuck in transit

(Riff 1 and Chords Bb - Gm)

F
Just because we're part of the scene
Dm
Doesn't mean we share the same dream

Bb
So perfect for fighting
Riff 1
Gm
So perfect for hiding
Gm
So perfect for violence

F
They're coming to getcha
Dm
They're coming to getcha

Bb
One day soon you'll have to leave
Gm
One day soon you'll have to excuse me

(Chorus:with Riff 2 and variation)

Bb                       Gm           C
A 1000 doors a 1000 different memories
Bb                       Gm           C
What's that I hear just fool that felt it
Bb                       Gm           C
She never made it back, she's stuck in transit

*Solo and ending*

                 ------------------------------------------------------------------------------
                                               RIFFS

Riff 1:
E|--10--10--10--10--12--10--10--10--10--10--13--13--12--|
B|------------------------------------------------------|
G|------------------------------------------------------|
D|------------------------------------------------------|
A|------------------------------------------------------|
E|------------------------------------------------------|

Riff 2:
E|----------------------------------------|
B|----------------------------------------|
G|--7--9--10--12--10--9--7--12--10--9--7--|
D|----------------------------------------|
A|----------------------------------------|
E|----------------------------------------|

Variation of 2nd Riff
E|-----------------------------------------------|
B|-----------------------------------------------|
G|--7--9--10--12--10--9--7--12--10--12/14--12\10-|
D|-----------------------------------------------|
A|-----------------------------------------------|
E|-----------------------------------------------|

            
            
Suggest correction
Creating personal tab
Creating personal tab
You can edit any tab online and save it as your Personal.

You can edit, replace or remove any tab part or add personal notes – all changes will be seen only by you.

Personal tabs can be accessed anytime from any device, even offline.
Learn more »
Give kudos to tab author, rate the tab!
1 2 3 4 5
comments
print report bad tab
1 comment total.
+1 reply
fetusrobot 396 Oct 22, 2015 08:10 PM

I can't find a tab for the guitar solo anywhere, and I can't seem to be able to map it out myself, but if I think it goes along the lines of:

E|---------------------17brb----------------------------|
B|---13----13--17--13----------------------13------12brb|
G|-14----14-------------------12h14-12h14------14-------|
D|------------------------------------------------------|
A|------------------------------------------------------|
E|------------------------------------------------------|

I can't make out the rest, everything just sounds wrong? I couldn't find any videos of the band playing live that showed much of how they perform the solo, so I'm a bit in the dark, really. I hope somebody finds this helpful in any way.

guest
You may want to rate the tab now too:
select rating
Wanna post a correction for this tab? Suggest correction