Oops, an error
Loading. Please wait.

Everyone Gets A Star bass

version 1
version 1

Whole song

Interactive

2,148 views 3 this week
1 commentread comment
1 2 3 4 5
x 3
add to favorites
×
Save as Personal and add changes to this tab that will be seen only by you. Learn more ›
×
You can save this tab as Personal to edit and correct it or add notes. All changes will be seen only by you. Learn more »
launch autoscroll
font size
0
reset
guitar tuner
edit
Autoscroll
slow
fast
+/-
esc
set tempo
stop
Author
Difficulty
Albert Hammond Jr.
Everyone Gets A Star
Tabbed By :Akonite
e-mail:akonite@gmail.com

Tuning:Standard

NO bass in the intro
bass comes in at about :21

Riff A
G|------------------|
D|------------------|
A|5-----5-----------|
E|-----5-5-7----7-55|


Riff B
G|----------------|
D|----------------|
A|5----5----------|
E|----5---5---5x-5|

Riff C
G|--------------------|
D|--------------------|
A|5---5---5-----------|
E|-------5-5--7-7----5|

Riff D
G|------------------|
D|------------------|
A|5--5------5\------|
E|---------5----5--5|

Riff E
G|--------------------------------|
D|--------------------------------|
A|55555-55-55-5-5-----------------|
E|-----------------55555-53-33-3-3|

Outro
G|-------|
D|-------|
A|5-55555|
E|-------|

Song Structure

Riff A(x2)
Riff B(x2)
Riff C(x2)
Riff D(x4)
Riff E(x2)
BREAK
Riff D(x4)
Riff C(x2)
Riff D(x4)
Riff E(x2)
Outro (until end end of song)


| \  slide down
| x  Mute note

            
            
Suggest correction
Creating personal tab
Creating personal tab
You can edit any tab online and save it as your Personal.

You can edit, replace or remove any tab part or add personal notes – all changes will be seen only by you.

Personal tabs can be accessed anytime from any device, even offline.
Learn more »
Give kudos to tab author, rate the tab!
1 2 3 4 5
comments
print report bad tab
1 comment total.
0 reply
joulian 31 Jun 23, 2007 09:36 AM

Not so bad, but I think some notes are missed and for example, riff E has to be played x4...
So can you fix this? Then you'll get your five stars!

guest
You may want to rate the tab now too:
select rating
Wanna post a correction for this tab? Suggest correction