Oops, an error
Loading. Please wait.

Feed Me Jack Or How I Learned To Stop Worrying And Love Peter Sellers tab

3,747 views 3 this week
5 commentsread comments
1 2 3 4 5
x 4
add to favorites
×
Save as Personal and add changes to this tab that will be seen only by you. Learn more ›
×
You can save this tab as Personal to edit and correct it or add notes. All changes will be seen only by you. Learn more »
launch autoscroll
font size
0
reset
how to read this tab
guitar tuner
edit
Autoscroll
slow
fast
+/-
esc
set tempo
stop
Author
Difficulty
----------------------------------------------------------------------------
Feed Me Jack Or How I Learned to Stop Worrying and Love Peter Sellers - 
Albert Hammond Jr
----------------------------------------------------------------------------

Tabbed by: Vanxln
Email: vano_fz@hotmail.com

Tuning: Guitar 1 Standard
        Guitar 2 Drop D

ok this song is really easy hope you enjoy it

Guitar 1 clean
Riff 1

e|-----------------------------------------------------------------|
B|-----4-------4-------4-------4-------6-------6-------4-------4---|
G|---6---6---6---6---6---6---6---4---7---7---7---7---6---6---6---6-|
D|-7-------7-------6-------6-------7-------7-------6-------6-------|
A|-----------------------------------------------------------------|
E|-----------------------------------------------------------------|

Guitar 1 clean (starts at 1:39 'till the end of the song)
Riff 2 (staccato playing)

e|-----------------------------------------------------------------|
B|-4-4-4-4-4-4-4-4-4-4-4-4-4-4-4-4-6-6-6-6-6-6-6-6-4-4-4-4-4-4-4-4-|
G|-6-6-6-6-6-6-6-6-6-6-6-6-6-6-6-6-7-7-7-7-7-7-7-7-6-6-6-6-6-6-6-6-|
D|-7-7-7-7-7-7-7-7-6-6-6-6-6-6-6-6-7-7-7-7-7-7-7-7-6-6-6-6-6-6-6-6-|
A|-----------------------------------------------------------------|
E|-----------------------------------------------------------------|


Guitar 2 starts at 1:39 it's just a mess with a lot of feedback
then play this


Guitar 2 w/distortion (play till the end)

e|-----------------------------------------------------------------|
B|-----------------------------------------------------------------|
G|---------------------------------2-2-2-2-2-2-2-2-4-4-4-4-4-4-4-4-|
D|-2-2-2-2-2-2-2-2-1-1-1-1-1-1-1-1-2-2-2-2-2-2-2-2-4-4-4-4-4-4-4-4-|
A|-2-2-2-2-2-2-2-2-1-1-1-1-1-1-1-1-0-0-0-0-0-0-0-0-2-2-2-2-2-2-2-2-|
D|-2-2-2-2-2-2-2-2-1-1-1-1-1-1-1-1---------------------------------|

i believe there's a third guitar that plays this chords along the song after 1:05 minute

   E         E/d#       A          B    
 
e |---|    e |---|    e |---|    e |---|
B |-9-|    B |-9-|    B |-5-|    B |-7-|
G |-9-|    G |-8-|    G |-6-|    G |-8-|
D |-9-|    D |-9-|    D |-7-|    D |-9-|
A |-7-|    A |-7-|    A |-7-|    A |-9-|
E |---|    E |---|    E |-5-|    E |-7-|


any comments email me

Suggest correction
Creating personal tab
Creating personal tab
You can edit any tab online and save it as your Personal.

You can edit, replace or remove any tab part or add personal notes – all changes will be seen only by you.

Personal tabs can be accessed anytime from any device, even offline.
Learn more »
comments
print report bad tab
5 comments total. Showing first comments.
-1 reply
Brian18C1 15 Oct 21, 2008 10:14 AM

it's good except I think you meant to put the first section of Guitar 1 up on the ADG strings so everything is just moved up one string. also I play it the first part like:

e|-----------------------------------------------------------------|
B|-----4-------4-------4-------4-------6-------6-------4-------4---|
G|---6---6---6---6---6---6---6---4---7---7---7---7---4---4---4---4-|
D|-7-------7-------6-------6-------7-------7-------6-------6-------|
A|-----------------------------------------------------------------|
E|-----------------------------------------------------------------|

That would also make the second part:

e|-----------------------------------------------------------------|
B|-4-4-4-4-4-4-4-4-4-4-4-4-4-4-4-4-6-6-6-6-6-6-6-6-4-4-4-4-4-4-4-4-|
G|-6-6-6-6-6-6-6-6-6-6-6-6-6-6-6-6-7-7-7-7-7-7-7-7-4-4-4-4-4-4-4-4-|
D|-7-7-7-7-7-7-7-7-6-6-6-6-6-6-6-6-7-7-7-7-7-7-7-7-6-6-6-6-6-6-6-6-|
A|-----------------------------------------------------------------|
E|-----------------------------------------------------------------|

+2 reply
Brian18C1 15 Oct 21, 2008 10:16 AM

damnit. I explained it how meant but I only fixed part of the tab. first part like this:

e|-----------------------------------------------------------------|
B|-----------------------------------------------------------------|
G|-----4-------4-------4-------4-------6-------6-------4-------4---|
D|---6---6---6---6---6---6---6---4---7---7---7---7---4---4---4---4-|
A|-7-------7-------6-------6-------7-------7-------6-------6-------|
E|-----------------------------------------------------------------|

+2 reply
Brian18C1 15 Oct 21, 2008 10:18 AM

and:

e|-----------------------------------------------------------------|
B|-----------------------------------------------------------------|
G|-4-4-4-4-4-4-4-4-4-4-4-4-4-4-4-4-6-6-6-6-6-6-6-6-4-4-4-4-4-4-4-4-|
D|-6-6-6-6-6-6-6-6-6-6-6-6-6-6-6-6-7-7-7-7-7-7-7-7-4-4-4-4-4-4-4-4-|
A|-7-7-7-7-7-7-7-7-6-6-6-6-6-6-6-6-7-7-7-7-7-7-7-7-6-6-6-6-6-6-6-6-|
E|-----------------------------------------------------------------|

guest
You may want to rate the tab now too:
select rating
Wanna post a correction for this tab? Suggest correction