Oops, an error
Loading. Please wait.

In Transit tab

version 2
version 2

Whole song

Interactive

32,328 views 45 this week
10 commentsread comments
1 2 3 4 5
x 10
add to favorites
×
Save as Personal and add changes to this tab that will be seen only by you. Learn more ›
×
You can save this tab as Personal to edit and correct it or add notes. All changes will be seen only by you. Learn more »
launch autoscroll
font size
0
reset
how to read this tab
guitar tuner
edit
Autoscroll
slow
fast
+/-
esc
set tempo
stop
Author
Difficulty
intermediate
[Intro]
e|--5-7-5----5-7-5-|
B|-7-7-7-7--7-7-7--|
G|-----------------|
D|-----------------|
A|-----------------|
E|-----------------|

[Verse]
(Guitar 1)
e|--5-7-5----5-7-5---5-7-5----5-7-5---5-7-5----5-7-5---5-7-5----5-7-5------|
B|-7-7-7-7--7-7-7---7-7-7-7--7-7-7---7-7-7-7--7-7-7---7-7-7-7--7-7-7-------|
G|-------------------------------------------------------------------------|
D|-------------------------------------------------------------------------|
A|-------------------------------------------------------------------------|
E|-------------------------------------------------------------------------|

(Guitar 1)
e|--5-7-5----5-7-5---5-7-5----5-7-5-------------------------------------|
B|-7-7-7-7--7-7-7---7-7-7-7--7-7-7--------------------------------------|
G|----------------------------------------------------------------------|
D|----------------------------------------------------------------------|
A|----------------------------------------------------------------------|
E|----------------------------------------------------------------------|(x3)
 
(Guitar 2)
e|---10--12--10--10---10--12--10--10---10--12--10--10---10--14--12--10--|
B|-10--10--10--10---10--10--10--10---10--10--10--10---10--10--10--10----|
G|----------------------------------------------------------------------|
D|----------------------------------------------------------------------|
A|----------------------------------------------------------------------|
E|----------------------------------------------------------------------|(x3)

e|--3-5-3----3-5-3---3-5-3-----3-5-3------------------------------------|
B|-5-5-5-5--5-5-5---5-5-5-5---5-5-5-------------------------------------|
G|----------------------------------------------------------------------|
D|----------------------------------------------------------------------|
A|----------------------------------------------------------------------|
E|----------------------------------------------------------------------|
 
e|---10--12--10--10---10--12--10--10---10--12--10--10---10--14--12--10--|
B|-10--10--10--10---10--10--10--10---10--10--10--10---10--10--10--10----|
G|----------------------------------------------------------------------|
D|----------------------------------------------------------------------|
A|----------------------------------------------------------------------|
E|----------------------------------------------------------------------|

e|--5-7-5----5-7-5---5-7-5----5-7-5-------------------------------------|
B|-7-7-7-7--7-7-7---7-7-7-7--7-7-7--------------------------------------|
G|----------------------------------------------------------------------|
D|----------------------------------------------------------------------|
A|----------------------------------------------------------------------|
E|----------------------------------------------------------------------|
 
e|---10--12--10--10---10--12--10--10---10--12--10--10---10--14--12--10--|
B|-10--10--10--10---10--10--10--10---10--10--10--10---10--10--10--10----|
G|----------------------------------------------------------------------|
D|----------------------------------------------------------------------|
A|----------------------------------------------------------------------|
E|----------------------------------------------------------------------|

e|--3-5-3----3-5-3--3-5-3----3-5-3-|
B|-5-5-5-5--5-5-5--5-5-5-5—-5-5-5--|
G|---------------------------------|
D|---------------------------------|
A|---------------------------------|
E|---------------------------------|
 
e|---10--12--10--10---10--12--10--10---10--12--10--10---10--14--12--10--|
B|-10--10--10--10---10--10--10--10---10--10--10--10---10--10--10--10----|
G|----------------------------------------------------------------------|
D|----------------------------------------------------------------------|
A|----------------------------------------------------------------------|
E|----------------------------------------------------------------------|

(Bass Fill)
(sounds like this on guitar)
e|-----------------------------------|
B|-----------------------------------|
G|-----------------------------------|
D|-----------------------------------|
A|-7777777777777777-0000000000000000-|
E|-----------------------------------|

[Chorus]
e|-1010101010101010-1010101010101010-----------------------------|
B|-1010101010101010-1010101010101010-----------------------------|
G|-1111111111111111-1111111111111111-----------------------------|
D|-1212121212121212-1212121212121212—99999999-99999999-----------|
A|-1212121212121212-1212121212121212—99999999-99999999-----------|
E|-1010101010101010-1010101010101010—77777777-77777777-----------|
 
e|------17-14-12-14-------17-14-12-14----------------------------|
B|-15----------------15------------------------------------------|
G|---------------------------------------------------------------|
D|---------------------------------------------------------------|
A|---------------------------------------------------------------|
E|---------------------------------------------------------------|

e|---------------------------------------------------------------|
B|-1212121212121212-1212121212121212-99999999-99999999-----------|
G|-1212121212121212-1212121212121212-99999999-99999999-----------|
D|-1212121212121212-1212121212121212-99999999-99999999-----------|
A|-1010101010101010-1010101010101010-77777777-77777777-----------|
E|---------------------------------------------------------------|
 
e|-------17-14-12-14-14---12-14(let ring)------------------------|
B|--15-----------------------------------------------------------|
G|---------------------------------------------------------------|
D|---------------------------------------------------------------|
A|---------------------------------------------------------------|
E|---------------------------------------------------------------|(x2)

[Verse]
e|--5-7-5----5-7-5---5-7-5----5-7-5---5-7-5----5-7-5---5-7-5----5-7-5------|
B|-7-7-7-7--7-7-7---7-7-7-7--7-7-7---7-7-7-7--7-7-7---7-7-7-7--7-7-7-------|
G|-------------------------------------------------------------------------|
D|-------------------------------------------------------------------------|
A|-------------------------------------------------------------------------|
E|-------------------------------------------------------------------------|

e|--5-7-5----5-7-5---5-7-5----5-7-5-------------------------------------|
B|-7-7-7-7--7-7-7---7-7-7-7--7-7-7--------------------------------------|
G|----------------------------------------------------------------------|
D|----------------------------------------------------------------------|
A|----------------------------------------------------------------------|
E|----------------------------------------------------------------------|(x3)
 
e|---10--12--10--10---10--12--10--10---10--12--10--10---10--14--12--10--|
B|-10--10--10--10---10--10--10--10---10--10--10--10---10--10--10--10----|
G|----------------------------------------------------------------------|
D|----------------------------------------------------------------------|
A|----------------------------------------------------------------------|
E|----------------------------------------------------------------------|(x3)

e|--3-5-3----3-5-3---3-5-3-----3-5-3------------------------------------|
B|-5-5-5-5--5-5-5---5-5-5-5---5-5-5-------------------------------------|
G|----------------------------------------------------------------------|
D|----------------------------------------------------------------------|
A|----------------------------------------------------------------------|
E|----------------------------------------------------------------------|
 
e|---10--12--10--10---10--12--10--10---10--12--10--10---10--14--12--10--|
B|-10--10--10--10---10--10--10--10---10--10--10--10---10--10--10--10----|
G|----------------------------------------------------------------------|
D|----------------------------------------------------------------------|
A|----------------------------------------------------------------------|
E|----------------------------------------------------------------------|

e|--5-7-5----5-7-5---5-7-5----5-7-5-------------------------------------|
B|-7-7-7-7--7-7-7---7-7-7-7--7-7-7--------------------------------------|
G|----------------------------------------------------------------------|
D|----------------------------------------------------------------------|
A|----------------------------------------------------------------------|
E|----------------------------------------------------------------------|
 
e|---10--12--10--10---10--12--10--10---10--12--10--10---10--14--12--10--|
B|-10--10--10--10---10--10--10--10---10--10--10--10---10--10--10--10----|
G|----------------------------------------------------------------------|
D|----------------------------------------------------------------------|
A|----------------------------------------------------------------------|
E|----------------------------------------------------------------------|

e|--3-5-3----3-5-3--3-5-3----3-5-3-|
B|-5-5-5-5--5-5-5--5-5-5-5—-5-5-5--|
G|---------------------------------|
D|---------------------------------|
A|---------------------------------|
E|---------------------------------|
 
e|---10--12--10--10---10--12--10--10---10--12--10--10---10--14--12--10--|
B|-10--10--10--10---10--10--10--10---10--10--10--10---10--10--10--10----|
G|----------------------------------------------------------------------|
D|----------------------------------------------------------------------|
A|----------------------------------------------------------------------|
E|----------------------------------------------------------------------|

[Bass Fill]
(sounds like this on guitar)
e|-----------------------------------|
B|-----------------------------------|
G|-----------------------------------|
D|-----------------------------------|
A|-7777777777777777-0000000000000000-|
E|-----------------------------------|

[Chorus]
e|-1010101010101010-1010101010101010-----------------------------|
B|-1010101010101010-1010101010101010-----------------------------|
G|-1111111111111111-1111111111111111-----------------------------|
D|-1212121212121212-1212121212121212—99999999-99999999-----------|
A|-1212121212121212-1212121212121212—99999999-99999999-----------|
E|-1010101010101010-1010101010101010—77777777-77777777-----------|
 
e|------17-14-12-14---------------------17-14-12-14--------------|
B|-15------------------------------15----------------------------|
G|---------------------------------------------------------------|
D|---------------------------------------------------------------|
A|---------------------------------------------------------------|
E|---------------------------------------------------------------|

e|---------------------------------------------------------------|
B|-1212121212121212-1212121212121212-99999999-99999999-----------|
G|-1212121212121212-1212121212121212-99999999-99999999-----------|
D|-1212121212121212-1212121212121212-99999999-99999999-----------|
A|-1010101010101010-1010101010101010-77777777-77777777-----------|
E|---------------------------------------------------------------|
 
e|-------17-14-12-14-14---12-14(let ring on second time)---------|
B|--15-----------------------------------------------------------|
G|---------------------------------------------------------------|
D|---------------------------------------------------------------|
A|---------------------------------------------------------------|
E|---------------------------------------------------------------|(x2)

(This plus Chorus)
e|---10--12--10--10---10--12--10--10---10--12--10--10---10--14--12--10--|
B|-10--10--10--10---10--10--10--10---10--10--10--10---10--10--10--10----|
G|----------------------------------------------------------------------|
D|----------------------------------------------------------------------|
A|----------------------------------------------------------------------|
E|----------------------------------------------------------------------|(x2)

            
            
Suggest correction
Creating personal tab
Creating personal tab
You can edit any tab online and save it as your Personal.

You can edit, replace or remove any tab part or add personal notes – all changes will be seen only by you.

Personal tabs can be accessed anytime from any device, even offline.
Learn more »
comments
print report bad tab
10 comments total. Showing first comments.
-2 reply
sotoonfire 20 Nov 07, 2006 05:11 PM

your a god
even though your azn white black and mexican

+1 reply
tom_shirley 21 Jan 25, 2007 10:16 AM

good tabbbbbb.

+1 reply
adio_blacklabel 10 Nov 28, 2007 02:55 PM

chorus is ****ed up

guest
You may want to rate the tab now too:
select rating
Wanna post a correction for this tab? Suggest correction