Oops, an error
Loading. Please wait.

Rocket tab

2,718 views 1 this week
3 commentsread comments
1 2 3 4 5
x 3
add to favorites
×
Save as Personal and add changes to this tab that will be seen only by you. Learn more ›
×
You can save this tab as Personal to edit and correct it or add notes. All changes will be seen only by you. Learn more »
launch autoscroll
font size
0
reset
how to read this tab
guitar tuner
edit
Autoscroll
slow
fast
+/-
esc
set tempo
stop
Difficulty
-------------------------------------------------------------------------------
			     Rocket - Albert Hammond Jr.
-------------------------------------------------------------------------------
Tabbed by: Nasser O

Tuning:Standard

Listen to song for strumming pattern and chord changes.

Intro/Verse  00:00 - 01:11
     G	   Em
e|---3---------------|
B|---3---------------|
G|---4---------------|
D|---5------2--------|
A|---5------2--------|
E|---3------0--------|

Chorus   01:12 - 01:39
     C	   G	 D
e|---8-----3-----10---|
B|---8-----3-----10---|
G|---9-----4-----11---|
D|--10-----5-----12---|
A|--10-----5-----12---|
E|---8-----3-----10---|

After Chorus	01:40 - 01:48
     D	      G
e|---10-------3---|
B|---10-------3---|
G|---11-------4---|
D|---12-------5---|
A|---12-------5---|
E|---10-------3---|

Verse  01:49 - 02:54
     G	   Em
e|---3---------------|
B|---3---------------|
G|---4---------------|
D|---5------2--------|
A|---5------2--------|
E|---3------0--------|

Chorus   02:54 - 03:21
     C	   G	 D
e|---8-----3-----10---|
B|---8-----3-----10---|
G|---9-----4-----11---|
D|--10-----5-----12---|
A|--10-----5-----12---|
E|---8-----3-----10---|

After Chorus	03:22 - 03:35
     D	      G
e|---10-------3---|
B|---10-------3---|
G|---11-------4---   Let Ring
D|---12-------5---|
A|---12-------5---|
E|---10-------3---|


===============================================================================

            
            
Suggest correction
Creating personal tab
Creating personal tab
You can edit any tab online and save it as your Personal.

You can edit, replace or remove any tab part or add personal notes – all changes will be seen only by you.

Personal tabs can be accessed anytime from any device, even offline.
Learn more »
Give kudos to tab author, rate the tab!
1 2 3 4 5
comments
print report bad tab
3 comments total.
0 reply
joker_thief 10 Jul 11, 2008 03:50 PM

its all good but you could've added the interlude before the second verse

0 reply
LookAlive 20 Sep 07, 2008 08:21 AM

agreed, the interlude is really what defines the song

+2 reply
s7706 811 Jun 16, 2009 01:10 AM

Heres the interlude:

e|-12---12--------------------12---12----------------------------------------|
B|-12---12--------------------12---12-------------------12---12--------------|
G|-12---12--12h14p12-----12---12---12--12h14p12----12---12---12--------------|
D|-------------------14-------------------------14------12---12--14-12-14----|
A|---------------------------------------------------------------------------|
E|---------------------------------------------------------------------------|

e|--------------------|
B|-12---12------------|
G|-12---12--14-12-----|
D|-12---12--------14--|
A|--------------------|
E|--------------------|

Great tab by the way. cheers.

guest
Wanna post a correction for this tab? Suggest correction