Oops, an error
Loading. Please wait.

Born Under A Bad Sign Bass

version 1
version 1

Whole song

Interactive

11,408 views 27 this week
no commentswrite comment
1 2 3 4 5
x 6
add to favorites
launch autoscroll
font size
0
reset
guitar tuner
backing track
0:00
0:00
×
Best way to learn
"Born Under A Bad Sign"
Autoscroll
slow
fast
+/-
esc
set tempo
stop
From: dhall@pcug.org.au (David Hall)                                  
Born Under a Bad Sign
Albert King
                                                                           
G|------------------|------------------|
D|------------2-----|-----------------*|
A|------2--4-----4--|--------2-----4--*|
E|2--4--------------|--2--4-----0------|

[TURNAROUND]  
G|--------------------------------------|
D|--------------------------------------|
A|--------------------------------------|
E|--1--2--3--4---4--4--4--2--2--4--0--2-|
                                                                                 
G|---|------------------|
D|---|-----------------*|
A|---|--------2--2--4--*|
E|4--|--2--4------------|

************************************

| *  Natural harmonic
| w  whole note           
| h  half note             
| q  quarter note          
| e  eighth note           
| s  sixteenth note        
| ^  triplet
| S  dotted sixteenth
| E  dotted eighth
| Q  dotted quarter
| H  dotted half
| W  dotted whole

************************************
Suggest correction
comments
print report bad tab
guest
You may want to rate the tab now too:
select rating
Wanna post a correction for this tab? Suggest correction