Oops, an error
Loading. Please wait.
We have an official Souvenirs Dun Autre Monde tab made by UG professional guitarists. Check out the tab »
×
by Alcest
878 views 3 this week
1 commentread comment
1 2 3 4 5
3 more votes to show rating
add to favorites
guitar tuner
Autoscroll
slow
fast
+/-
esc
set tempo
stop
"Souvenirs Dun Autre Monde"
demo version
Play now

or get full version for Free

×
Get full version now!
Learn and play this song
in Tab Pro
Try for free

or get $10 off Welcome Bonus

Get welcome bonus
Get access to Tab Pro version of “Souvenirs Dun Autre Monde”!
Tab Pro is a premium guitar tab service, available on PC, Mac, iOS and Android
TRY FOR FREE
Your download will start in 7 seconds
×
Like this song? We have more! Follow us on Facebook for daily tips, lessons and other guitar-related content.
To download “Souvenirs Dun Autre Monde” Power tab click button below
Please note that you must have Power Tab software installed on your
computer in order to view this file.
Suggest correction
Give kudos to tab author, rate the tab!
1 2 3 4 5
comments
report bad tab
1 comment total.
0 reply
Perfekte 93 Aug 31, 2011 10:40 AM

I left a bit out. When you're playing the inverted chords near the end, the second time round you finish it with this.

| E S S E E S S S S   E S S E   E S S S S  3x
|-------------------|-2-2-2-2---5-5-5-5-5--||
|-3-3-3-3-3-3-3-3-3-|-3-3-3-3---3-3-3-3-3-o||
|-4-4-4-4-4-4-4-4-4-|-4-4-4-4---4-4-4-4-4--||
|-5-5-5-5-5-5-5-5-5-|----------------------||
|-------------------|---------------------o||
|-------------------|----------------------||
|
| E S S E E S S S S E S S E E S S S S 3x
|-------------------|----------------------||
|-------------------|---------------------o||
|-------------------|-4-4-4-4---4-4-4-4-4--||
|-5-5-5-5-5-5-5-5-5-|-2-2-2-2---2-2-2-2-2--||
|-2-2-2-2-2-2-2-2-2-|---------------------o||
|-------------------|----------------------||

Note the 5s on the high e string. It's very minor but I thought I'd be complete. Support Alcest!

guest
You may want to rate the tab now too:
select rating