Oops, an error
Loading. Please wait.

Souvenirs Dun Autre Monde Tab

version 1
version 1

Whole song

Interactive

13,780 views 84 this week
1 commentread comment
1 2 3 4 5
x 7
add to favorites
launch autoscroll
font size
0
reset
how to read this tab
guitar tuner
Autoscroll
slow
fast
+/-
esc
set tempo
stop
Help us to improve Ultimate-Guitar.com Take our survey!
×
Author
Difficulty
Tuning
novice
D# G# C# F# A# D#
SOUVENIRS D'UN AUTRE MONDE
Words and Music by Neige
Tabbed by: A.Z. Crowley
Email: scratch_guitars@hotmail.com
More Alcest to come, and I'm always open to requests.
Tuning: Eb Ab Db Gb Bb eb
Tempo 97

6/8
  
[Intro] (Main Idea)
    E  S S S S E  S S E    E  S S E  E  S E  S
D#|----------------------|---------------------|
A#|----------------------|---------------------|
F#|-0--0-0-0-0-0--0-0-0--|-0--0-0---------2--2-|
C#|-5--5-5-5-5-5--5-5-5--|-5--5-5-4--4--4-4--4-|
G#|-2--2-2-2-2-2--2-2-2--|-2--2-2-2--2--2-2--2-|
D#|-0--0-0-0-0-0--0-0-0--|-0--0-0-0--0--0-0--0-|

    E  S S S S E  S S E    E  S S S S E  S S S S
D#|----------------------|--------------------------|
A#|----------------------|--------------------------|
F#|-0--0-0-0-0-0--0-0-0--|-0--0-0-0-0-0--0-0-0-0----|
C#|-5--5-5-5-5-5--5-5-5--|-5--5-5-5-5-5--5-5-5-5----|
G#|-3--3-3-3-3-3--3-3-3--|-3--3-3-3-3-3--3-3-3-3----|
D#|----------------------|--------------------------|

    E  S S E  E  S S S S   E  S S S S E  S S S S
D#|----------------------|-----------------------|
A#|----------------------|-----------------------|
F#|----------------------|-0--0-0-0-0-2--2-2-2-2-|
C#|-0--0-0-0--0--0-0-0-0-|-0--0-0-0-0-0--0-0-0-0-|
G#|-2--2-2-2--2--2-2-2-2-|-2--2-2-2-2-2--2-2-2-2-|
D#|-2--2-2-2--2--2-2-2-2-|-2--2-2-2-2-2--2-2-2-2-|

    E  S S S S E  S S E    E  S S S S E  S S S S
D#|----------------------|------------------------|
A#|-0--0-0-0-0-0--0-0-0--|-0--0-0-0-0-0--0-0-0-0--|
F#|-4--4-4-4-4-4--4-4-0--|-0--0-0-0-0-0--0-0-0-0--|
C#|-5--5-5-5-5-5--5-5-5--|-5--5-5-5-5-5--5-5-5-5--|
G#|-3--3-3-3-3-3--3-3-3--|-3--3-3-3-3-3--3-3-3-3--|
D#|----------------------|------------------------|

    E S S S S E S S E   E S S E E S E S
D#|-------------------|-----------------|
A#|-------------------|-----------------|
F#|-0-0-0-0-0-0-0-0-0-|-0-0-0-------2-2-|
C#|-5-5-5-5-5-5-5-5-5-|-5-5-5-4-4-4-4-4-|
G#|-2-2-2-2-2-2-2-2-2-|-2-2-2-2-2-2-2-2-|
D#|-0-0-0-0-0-0-0-0-0-|-0-0-0-0-0-0-0-0-|

    E S S S S E S S E   E S S S S E S S S S
D#|-------------------|----------------------|
A#|-------------------|-0-0-0-0-0-0-0-0-0-0--|
F#|-0-0-0-0-0-0-0-0-0-|-0-0-0-0-0-0-0-0-0-0--|
C#|-5-5-5-5-5-5-5-5-5-|-5-5-5-5-5-5-5-5-5-5--|
G#|-3-3-3-3-3-3-3-3-3-|-3-3-3-3-3-3-3-3-3-3--|
D#|-------------------|----------------------|

    E S S E E S S S S   E S S S S E S S S S
D#|-------------------|---------------------|
A#|---------0---------|-----------0---------|
F#|-0-0-0-0-0-0-0-0-0-|-0-0-0-0-0-0-0-0-0-0-|
C#|-4-4-4-4-4-4-4-4-4-|-4-4-4-4-4-4-4-4-4-4-|
G#|-2-2-2-2-2-2-2-2-2-|-2-2-2-2-2-2-2-2-2-2-|
D#|-2-2-2-2-2-2-2-2-2-|-2-2-2-2-2-2-2-2-2-2-|

    E S S S S E S S E   E S S S S E S S S S
D#|-------------------|----------------------|
A#|-0-0-0-0-0-0-0-0-0-|-0-0-0-0-0-0-0-0-0-0--|
F#|-0-0-0-0-0-0-0-0-0-|-0-0-0-0-0-0-0-0-0-0--|
C#|-5-5-5-5-5-5-5-5-5-|-5-5-5-5-5-5-5-5-5-5--|
G#|-3-3-3-3-3-3-3-3-3-|-3-3-3-3-3-3-3-3-3-3--|
D#|-------------------|----------------------|

   Lead played over intro  
    E E   E   E E   E   E E   E E E E
D#|-7---------7-------|-7---------------|
A#|---5---------5-----|---5-----5---5---|
F#|-------4---------4-|-------4---4-----|
C#|-------------------|-----------------|
G#|-------------------|-----------------|
D#|-------------------|-----------------|

  | E S S S S E S S E   E S S E E S E S
D#|-------------------|-----------------|
A#|-------------------|-----------------|
F#|-0-0-0-0-0-0-0-0-0-|-0-0-0-------2-2-|
C#|-5-5-5-5-5-5-5-5-5-|-5-5-5-4-4-4-4-4-|
G#|-2-2-2-2-2-2-2-2-2-|-2-2-2-2-2-2-2-2-|
D#|-0-0-0-0-0-0-0-0-0-|-0-0-0-0-0-0-0-0-|

    E E   E   E E   E   E E   E   E E   E
D#|-3---------3-------|-3---------3----------|
A#|---5---------5-----|---5---------5--------|
F#|-------0---------0-|-------0---------0----|
C#|-------------------|----------------------|
G#|-------------------|----------------------|
D#|-------------------|----------------------|

  | E S S S S E S S E   E S S S S E S S S S
D#|-------------------|----------------------|
A#|-------------------|----------------------|
F#|-0-0-0-0-0-0-0-0-0-|-0-0-0-0-0-0-0-0-0-0--|
C#|-5-5-5-5-5-5-5-5-5-|-5-5-5-5-5-5-5-5-5-5--|
G#|-3-3-3-3-3-3-3-3-3-|-3-3-3-3-3-3-3-3-3-3--|
D#|-------------------|----------------------|

    E E   E E E   E     E E   E   E E   E
D#|-2-------2---------|-2---------2---------|
A#|---3-------3-------|---3---------3-------|
F#|-------4-------4---|-------4---------4---|
C#|-------------------|---------------------|
G#|-------------------|---------------------|
D#|-------------------|---------------------|

  | E S S E E S S S S   E S S S S E S S S S
D#|-------------------|---------------------|
A#|-------------------|---------------------|
F#|-------------------|-0-0-0-0-0-2-2-2-2-2-|
C#|-0-0-0-0-0-0-0-0-0-|-0-0-0-0-0-0-0-0-0-0-|
G#|-2-2-2-2-2-2-2-2-2-|-2-2-2-2-2-2-2-2-2-2-|
D#|-2-2-2-2-2-2-2-2-2-|-2-2-2-2-2-2-2-2-2-2-|

    E E   E   E E   E   E E   E   E E   E
D#|-3---------3-------|-3---------3----------|
A#|---5---------5-----|---5---------5--------|
F#|-------5---------5-|-------5---------5----|
C#|-------------------|----------------------|
G#|-------------------|----------------------|
D#|-------------------|----------------------|

  | E S S S S E S S E   E S S S S E S S S S
D#|-------------------|----------------------|
A#|-0-0-0-0-0-0-0-0-0-|-0-0-0-0-0-0-0-0-0-0--|
F#|-4-4-4-4-4-4-4-4-0-|-0-0-0-0-0-0-0-0-0-0--|
C#|-5-5-5-5-5-5-5-5-5-|-5-5-5-5-5-5-5-5-5-5--|
G#|-3-3-3-3-3-3-3-3-3-|-3-3-3-3-3-3-3-3-3-3--|
D#|-------------------|----------------------|

    E E   E   E E   E   E E   E E E E
D#|-7---------7-------|-7-----------5---|
A#|---5---------5-----|---5-----5-------|
F#|-------4---------4-|-------4---4-----|
C#|-------------------|-----------------|
G#|-------------------|-----------------|
D#|-------------------|-----------------|

  | E S S S S E S S E   E S S E E S E S
D#|-------------------|-----------------|
A#|-------------------|-----------------|
F#|-0-0-0-0-0-0-0-0-0-|-0-0-0-------2-2-|
C#|-5-5-5-5-5-5-5-5-5-|-5-5-5-4-4-4-4-4-|
G#|-2-2-2-2-2-2-2-2-2-|-2-2-2-2-2-2-2-2-|
D#|-0-0-0-0-0-0-0-0-0-|-0-0-0-0-0-0-0-0-|

    E E   E   E E   E   E E   E   E E   E
D#|-3---------3-------|-3---------3----------|
A#|---5---------5-----|---5---------5--------|
F#|-------5---------5-|-------5---------5----|
C#|-------------------|----------------------|
G#|-------------------|----------------------|
D#|-------------------|----------------------|

  | E S S S S E S S E   E S S S S E S S S S
D#|-------------------|----------------------|
A#|-------------------|-0-0-0-0-0-0-0-0-0-0--|
F#|-0-0-0-0-0-0-0-0-0-|-0-0-0-0-0-0-0-0-0-0--|
C#|-5-5-5-5-5-5-5-5-5-|-5-5-5-5-5-5-5-5-5-5--|
G#|-3-3-3-3-3-3-3-3-3-|-3-3-3-3-3-3-3-3-3-3--|
D#|-------------------|----------------------|

    E E   E E E   E     E E   E   E E   E
D#|-2-------2---------|-2---------2---------|
A#|---3-------3-------|---3---------3-------|
F#|-------4-------4---|-------4---------4---|
C#|-------------------|---------------------|
G#|-------------------|---------------------|
D#|-------------------|---------------------|

  | E S S E E S S S S   E S S S S E S S S S
D#|-------------------|---------------------|
A#|---------0---------|-----------0---------|
F#|-0-0-0-0-0-0-0-0-0-|-0-0-0-0-0-0-0-0-0-0-|
C#|-4-4-4-4-4-4-4-4-4-|-4-4-4-4-4-4-4-4-4-4-|
G#|-2-2-2-2-2-2-2-2-2-|-2-2-2-2-2-2-2-2-2-2-|
D#|-2-2-2-2-2-2-2-2-2-|-2-2-2-2-2-2-2-2-2-2-|

    E E   E   E E   E   E E   E   E E   E
D#|-0---------0-------|-0---------0----------|
A#|---3---------3-----|---3---------3--------|
F#|-------0---------0-|-------0---------0----|
C#|-------------------|----------------------|
G#|-------------------|----------------------|
D#|-------------------|----------------------|

  | E S S S S E S S E   E S S S S E S S S S
D#|-------------------|----------------------|
A#|-0-0-0-0-0-0-0-0-0-|-0-0-0-0-0-0-0-0-0-0--|
F#|-0-0-0-0-0-0-0-0-0-|-0-0-0-0-0-0-0-0-0-0--|
C#|-5-5-5-5-5-5-5-5-5-|-5-5-5-5-5-5-5-5-5-5--|
G#|-3-3-3-3-3-3-3-3-3-|-3-3-3-3-3-3-3-3-3-3--|
D#|-------------------|----------------------|

Vocal Enter, drums really kick in and guitar play
the Main Idea x2, then...

  [Break] - x4
    E. E S E S S E   E  S S S S E S S S S   E. S E E  S S E   E. S E E  S S E
D#|----------------|----------------------|-----------------|-----------------|
A#|--------0-------|------------0---------|-----------------|-----------------|
F#|----0-------0---|----0---0-------0---0-|----0------------|----0------------|
C#|-0----0---0---0-|-2----2---2---2---2---|--------0----0---|--------0----0---|
G#|----------------|----------------------|-3----3----3---3-|-3----3----3---3-|
D#|----------------|----------------------|-----------------|-----------------|

[Verse 2], guitars play Main Idea x2, then
Main Idea x2 with the following lead.
  [Tremolo Picked]                    
       H.                    H.
D#||--15tp----------------|-14tp--------------|
A#||o--/------------------|--/----------------|
F#||---/------------------|--/----------------|
C#||----------------------|-------------------|
G#||o---------------------|-------------------|
D#||----------------------|-------------------|

     H.                    H.
D#|---------------------|-----------------------||
A#|-15tp----------------|-17tp-----------------o||
F#|--/------------------|--/--------------------||
C#|--/------------------|--/--------------------||
G#|---------------------|----------------------o||
D#|---------------------|-----------------------||

  [Another Break] x4
      E. E S E S S E   E S S S S E S S S S   E. S E E S S E   E. S E E S S E 
D#||-----------------|---------------------|----------------|----------------|
A#||---------0-------|-----------0---------|----------------|----------------|
F#||-----0-------0---|---0---0-------0---0-|----0-----------|----0-----------|
C#||--0----0---0---0-|-2---2---2---2---2---|--------0---0---|--------0---0---|
G#||-----------------|---------------------|-3----3---3---3-|-3----3---3---3-|
D#||-----------------|---------------------|----------------|----------------|

  [Verse the Third]   (New Pattern)
       E    E    Q        E    E
D#||-------------------------------|
A#||o------12----------------------|
F#||------------12------------12---|
C#||--12-----------------12--------|
G#||o------------------------------|
D#||-------------------------------|

  |    S S  S S  S S S S  S S  S S
D#||-------------------------------|
A#||o------------------------------|
F#||---5-5--5-5--5-5-5-5--5-5--5-5-|
C#||---5-5--5-5--5-5-5-5--5-5--5-5-|
G#||o--3-3--3-3--3-3-3-3--3-3--3-3-|
D#||-------------------------------|

     E    E    Q        E    E      E    E    Q        E    E
D#|------------------------------|-------------------------------|
A#|------12----------------------|------10-----------------------|
F#|-----------12------------12---|-----------12------------12----|
C#|-12-----------------12--------|-12-----------------12---------|
G#|------------------------------|-------------------------------|
D#|------------------------------|-------------------------------|

  |  S S  S S  S S S S  S S  S S    S S  S S  S S S S  S S  S S
D#|------------------------------|-------------------------------|
A#|------------------------------|-------------------------------|
F#|--5-5--5-5--5-5-5-5--5-5--5-5-|--5-5--5-5--5-5-5-5--5-5--5-5--|
C#|--5-5--5-5--5-5-5-5--5-5--5-5-|--5-5--5-5--5-5-5-5--5-5--5-5--|
G#|--3-3--3-3--3-3-3-3--3-3--3-3-|--3-3--3-3--3-3-3-3--3-3--3-3--|
D#|------------------------------|-------------------------------|

     E    E    Q        E    E      E    E    E    E    E    E
D#|------------------------------|-------------------------------|
A#|------10----------------------|-----------12------------------|
F#|-----------12------------12---|-12------------------12--------|
C#|-12-----------------12--------|------12--------12--------12---|
G#|------------------------------|-------------------------------|
D#|------------------------------|-------------------------------|

  |  S S  S S  S S S S  S S  S S    S S  S S  S S  S S  S S  S S
D#|------------------------------|-------------------------------|
A#|------------------------------|-------------------------------|
F#|--5-5--5-5--5-5-5-5--5-5--5-5-|--4-4--4-4--4-4--4-4--4-4--4-4-|
C#|--5-5--5-5--5-5-5-5--5-5--5-5-|--5-5--5-5--5-5--5-5--5-5--5-5-|
G#|--3-3--3-3--3-3-3-3--3-3--3-3-|--2-2--2-2--2-2--2-2--2-2--2-2-|
D#|------------------------------|-------------------------------|

     E    E    E    E    E    E
D#|---------------------------------|
A#|-----------12--------------------|
F#|-12------------------12----------|
C#|------12--------12--------12-----|
G#|---------------------------------|
D#|---------------------------------|

  |  S S  S S  S S  S S  S S  S S
D#|---------------------------------|
A#|---------------------------------|
F#|--4-4--4-4--4-4--4-4--4-4--4-4---|
C#|--5-5--5-5--5-5--5-5--5-5--5-5---|
G#|--2-2--2-2--2-2--2-2--2-2--2-2---|
D#|---------------------------------|

     E    E    E    E    E    E      E    E    E    E    E    E
D#|-------------------------------|--------------------------------||
A#|-----------10------------------|-----------10------------------o||
F#|-12------------------12--------|-12------------------12---------||
C#|------12--------12--------12---|------12--------12--------12----||
G#|-------------------------------|-------------------------------o||
D#|-------------------------------|--------------------------------||

  |  S S  S S  S S  S S  S S  S S    S S  S S  S S  S S  S S  S S
D#|-------------------------------|--------------------------------||
A#|-------------------------------|-------------------------------o||
F#|--4-4--4-4--4-4--4-4--4-4--4-4-|--5-5--5-5--4-4--2-2--2-2-------||
C#|--5-5--5-5--5-5--5-5--5-5--5-5-|--5-5--5-5--5-5--5-5--5-5--5-5--||
G#|--2-2--2-2--2-2--2-2--2-2--2-2-|--2-2--2-2--2-2--2-2--2-2--2-2-o||
D#|-------------------------------|--------------------------------||

  Enter extra harmony on top of chords and lead.    
       E    E    E    E    E    E
D#||------------15-------------15---|
A#||o------15-------------15--------|
F#||--------------------------------|
C#||--12-------------12-------------|
G#||o-------------------------------|
D#||--------------------------------|

  |    E    E    Q         E    E
D#||--------------------------------|
A#||o------12-----------------------|
F#||------------12-------------12---|
C#||--12------------------12--------|
G#||o-------------------------------|
D#||--------------------------------|

  |    S S  S S  S S  S S  S S  S S
D#||--------------------------------|
A#||o-------------------------------|
F#||---5-5--5-5--5-5--5-5--5-5--5-5-|
C#||---5-5--5-5--5-5--5-5--5-5--5-5-|
G#||o--3-3--3-3--3-3--3-3--3-3--3-3-|
D#||--------------------------------|

     E    E    E    E    E    E      E    E    E    E    E    E
D#|-----------15-------------15---|-----------15-------------15----|
A#|------15-------------15--------|------15-------------15---------|
F#|-------------------------------|--------------------------------|
C#|-12-------------12-------------|-12-------------12--------------|
G#|-------------------------------|--------------------------------|
D#|-------------------------------|--------------------------------|

  |  E    E    Q         E    E      E    E    Q         E    E
D#|-------------------------------|--------------------------------|
A#|------12-----------------------|------10------------------------|
F#|-----------12-------------12---|-----------12-------------12----|
C#|-12------------------12--------|-12------------------12---------|
G#|-------------------------------|--------------------------------|
D#|-------------------------------|--------------------------------|

  |  S S  S S  S S  S S  S S  S S    S S  S S  S S  S S  S S  S S
D#|-------------------------------|--------------------------------|
A#|-------------------------------|--------------------------------|
F#|--5-5--5-5--5-5--5-5--5-5--5-5-|--5-5--5-5--5-5--5-5--5-5--5-5--|
C#|--5-5--5-5--5-5--5-5--5-5--5-5-|--5-5--5-5--5-5--5-5--5-5--5-5--|
G#|--3-3--3-3--3-3--3-3--3-3--3-3-|--3-3--3-3--3-3--3-3--3-3--3-3--|
D#|-------------------------------|--------------------------------|

     E    E    E    E    E    E      E    E    Q         E    E
D#|-----------15-------------15---|-14--------14-------------14---|
A#|------15-------------15--------|------15-------------15--------|
F#|-------------------------------|-------------------------------|
C#|-12-------------12-------------|-------------------------------|
G#|-------------------------------|-------------------------------|
D#|-------------------------------|-------------------------------|

  |  E    E    Q         E    E      E    E    E    E    E    E
D#|-------------------------------|-------------------------------|
A#|------10-----------------------|-----------12------------------|
F#|-----------12-------------12---|-12------------------12--------|
C#|-12------------------12--------|------12--------12--------12---|
G#|-------------------------------|-------------------------------|
D#|-------------------------------|-------------------------------|

  |  S S  S S  S S  S S  S S  S S    S S  S S  S S  S S  S S  S S
D#|-------------------------------|-------------------------------|
A#|-------------------------------|-------------------------------|
F#|--5-5--5-5--5-5--5-5--5-5--5-5-|--4-4--4-4--4-4--4-4--4-4--4-4-|
C#|--5-5--5-5--5-5--5-5--5-5--5-5-|--5-5--5-5--5-5--5-5--5-5--5-5-|
G#|--3-3--3-3--3-3--3-3--3-3--3-3-|--2-2--2-2--2-2--2-2--2-2--2-2-|
D#|-------------------------------|-------------------------------|

     E    E    Q         E    E
D#|-14--------14-------------14-----|
A#|------15-------------15----------|
F#|---------------------------------|
C#|---------------------------------|
G#|---------------------------------|
D#|---------------------------------|

  |  E    E    E    E    E    E
D#|---------------------------------|
A#|-----------12--------------------|
F#|-12------------------12----------|
C#|------12--------12--------12-----|
G#|---------------------------------|
D#|---------------------------------|

  |  S S  S S  S S  S S  S S  S S
D#|---------------------------------|
A#|---------------------------------|
F#|--4-4--4-4--4-4--4-4--4-4--4-4---|
C#|--5-5--5-5--5-5--5-5--5-5--5-5---|
G#|--2-2--2-2--2-2--2-2--2-2--2-2---|
D#|---------------------------------|

     E    E    Q         E    E
D#|-14--------14-------------14---|
A#|------15-------------15--------|
F#|-------------------------------|
C#|-------------------------------|
G#|-------------------------------|
D#|-------------------------------|

  |  E    E    E    E    E    E
D#|-------------------------------|
A#|-----------10------------------|
F#|-12------------------12--------|
C#|------12--------12--------12---|
G#|-------------------------------|
D#|-------------------------------|

  |  S S  S S  S S  S S  S S  S S
D#|-------------------------------|
A#|-------------------------------|
F#|--4-4--4-4--4-4--4-4--4-4--4-4-|
C#|--5-5--5-5--5-5--5-5--5-5--5-5-|
G#|--2-2--2-2--2-2--2-2--2-2--2-2-|
D#|-------------------------------|

     E    E    Q         E    E        E   E    H
D#|-14--------14-------------14----||----------15---------------|
A#|------15-------------15--------o||-----15--------------------|
F#|--------------------------------||---------------------------|
C#|--------------------------------||-12------------------------|
G#|-------------------------------o||---------------------------|
D#|--------------------------------||---------------------------|

  |  E    E    E    E    E    E        E   E    H
D#|--------------------------------||---------------------------|
A#|-----------10------------------o||----------12---------------|
F#|-12------------------12---------||-12------------------------|
C#|------12--------12--------12----||-----12--------------------|
G#|-------------------------------o||---------------------------|
D#|--------------------------------||---------------------------|

  |  S S  S S  S S  S S  S S  S S      E   S S  E  E  S S S S
D#|--------------------------------||---------------------------|
A#|-------------------------------o||--5---5-5--5--5--5-5-5-5---|
F#|--5-5--5-5--4-4--2-2--2-2-------||--5---5-5--5--5--5-5-5-5---|
C#|--5-5--5-5--5-5--5-5--5-5--5-5--||--5---5-5--5--5--5-5-5-5---|
G#|--2-2--2-2--2-2--2-2--2-2--2-2-o||--3---3-3--3--3--3-3-3-3---|
D#|--------------------------------||---------------------------|
 
      E  S S E  E  S S S S   E  S S E  E  S S S S
D#||-----------------------|----------------------|
A#||o-5--5-5-5--5--5-5-5-5-|-3--3-3-3--3--3-3-3-3-|
F#||--5--5-5-5--5--5-5-5-5-|-5--5-5-5--5--5-5-5-5-|
C#||--5--5-5-5--5--5-5-5-5-|-5--5-5-5--5--5-5-5-5-|
G#||o----------------------|----------------------|
D#||-----------------------|----------------------|

  |   E  S S E  E  S S S S   E  S S E  E  S S S S
D#||-----------------------|----------------------|
A#||o----------------------|----------------------|
F#||-----------------------|----------------------|
C#||--5--5-5-5--5--5-5-5-5-|-5--5-5-5--5--5-5-5-5-|
G#||o-3--3-3-3--3--3-3-3-3-|-3--3-3-3--3--3-3-3-3-|
D#||-----------------------|----------------------|

    E  S S E  E  S S S S   E  S S E  E  S S S S
D#|----------------------|-2--2-2-2--2--2-2-2-2--||
A#|-3--3-3-3--3--3-3-3-3-|-3--3-3-3--3--3-3-3-3-o||
F#|-4--4-4-4--4--4-4-4-4-|-4--4-4-4--4--4-4-4-4--||
C#|-5--5-5-5--5--5-5-5-5-|-----------------------||
G#|----------------------|----------------------o||
D#|----------------------|-----------------------||

  | E  S S E  E  S S S S   E  S S E  E  S S S S
D#|----------------------|-----------------------||
A#|----------------------|----------------------o||
F#|----------------------|-4--4-4-4--4--4-4-4-4--||
C#|-5--5-5-5--5--5-5-5-5-|-2--2-2-2--2--2-2-2-2--||
G#|-2--2-2-2--2--2-2-2-2-|----------------------o||
D#|----------------------|-----------------------||
    
      E S S E E S S S S   E S S E E S S S S
D#||--------------------|-------------------|
A#||o-5-5-5-5-5-5-5-5-5-|-3-3-3-3-3-3-3-3-3-|
F#||--------------------|-------------------|
C#||--------------------|-------------------|
G#||o-------------------|-------------------|
D#||--------------------|-------------------|

  |   E S S E E S S S S   E S S E E S S S S
D#||--------------------|-------------------|
A#||o-5-5-5-5-5-5-5-5-5-|-3-3-3-3-3-3-3-3-3-|
F#||--5-5-5-5-5-5-5-5-5-|-5-5-5-5-5-5-5-5-5-|
C#||--5-5-5-5-5-5-5-5-5-|-5-5-5-5-5-5-5-5-5-|
G#||o-------------------|-------------------|
D#||--------------------|-------------------|

  |   E S S E E S S S S   E S S E E S S S S
D#||--------------------|-------------------|
A#||o-------------------|-------------------|
F#||--------------------|-------------------|
C#||--5-5-5-5-5-5-5-5-5-|-5-5-5-5-5-5-5-5-5-|
G#||o-3-3-3-3-3-3-3-3-3-|-3-3-3-3-3-3-3-3-3-|
D#||--------------------|-------------------|

    E S S E E S S S S   E S S S S E S S S S  3x
D#|-------------------|-2-2-2-2-2-3-3-3-3-3--||
A#|-3-3-3-3-3-3-3-3-3-|---------------------o||
F#|-------------------|----------------------||
C#|-------------------|----------------------||
G#|-------------------|---------------------o||
D#|-------------------|----------------------||

  | E S S E E S S S S   E S S E   E S S S S  3x
D#|-------------------|-2-2-2-2---2-2-2-2-2--||
A#|-3-3-3-3-3-3-3-3-3-|-3-3-3-3---3-3-3-3-3-o||
F#|-4-4-4-4-4-4-4-4-4-|-4-4-4-4---4-4-4-4-4--||
C#|-5-5-5-5-5-5-5-5-5-|----------------------||
G#|-------------------|---------------------o||
D#|-------------------|----------------------||

  | E S S E E S S S S   E S S E   E S S S S  3x
D#|-------------------|----------------------||
A#|-------------------|---------------------o||
F#|-------------------|-4-4-4-4---4-4-4-4-4--||
C#|-5-5-5-5-5-5-5-5-5-|-2-2-2-2---2-2-2-2-2--||
G#|-2-2-2-2-2-2-2-2-2-|---------------------o||
D#|-------------------|----------------------||

    E S S E E S S S S   E S S E E S S S S
D#|-------------------|-------------------|
A#|-5-5-5-5-5-5-5-5-5-|-3-3-3-3-3-3-3-3-3-|
F#|-------------------|-------------------|
C#|-------------------|-------------------|
G#|-------------------|-------------------|
D#|-------------------|-------------------|

  | E S S E E S S S S   E S S E E S S S S
D#|-------------------|-------------------|
A#|-5-5-5-5-5-5-5-5-5-|-3-3-3-3-3-3-3-3-3-|
F#|-5-5-5-5-5-5-5-5-5-|-5-5-5-5-5-5-5-5-5-|
C#|-5-5-5-5-5-5-5-5-5-|-5-5-5-5-5-5-5-5-5-|
G#|-------------------|-------------------|
D#|-------------------|-------------------|

  | E S S E E S S S S   E S S E E S S S S
D#|-------------------|-------------------|
A#|-------------------|-------------------|
F#|-------------------|-------------------|
C#|-5-5-5-5-5-5-5-5-5-|-5-5-5-5-5-5-5-5-5-|
G#|-3-3-3-3-3-3-3-3-3-|-3-3-3-3-3-3-3-3-3-|
D#|-------------------|-------------------|

    E S S E E S S S S   E S S E E S S S S   H.      +H.
D#|-------------------|-------------------|-------|--------*|
A#|-3-3-3-3-3-3-3-3-3-|-3-3-3-3-3-3-3-3-3-|-------|--------*|
F#|-------------------|-------------------|-0-----|-(0)----*|
C#|-------------------|-------------------|-5-----|-(5)----*|
G#|-------------------|-------------------|-2-----|-(2)----*|
D#|-------------------|-------------------|-0-----|-(0)----*|

  | E S S E E S S S S   E S S E E S S S S   H.      +H.
D#|-------------------|-------------------|-------|--------*|
A#|-3-3-3-3-3-3-3-3-3-|-3-3-3-3-3-3-3-3-3-|-------|--------*|
F#|-4-4-4-4-4-4-4-4-4-|-4-4-4-4-4-4-4-4-4-|-0-----|-(0)----*|
C#|-5-5-5-5-5-5-5-5-5-|-5-5-5-5-5-5-5-5-5-|-5-----|-(5)----*|
G#|-------------------|-------------------|-2-----|-(2)----*|
D#|-------------------|-------------------|-0-----|-(0)----*|

  | E S S E E S S S S   E S S E E S S S S   H.      +H.
D#|-------------------|-------------------|-------|--------*|
A#|-------------------|-------------------|-------|--------*|
F#|-------------------|-------------------|-0-----|-(0)----*|
C#|-5-5-5-5-5-5-5-5-5-|-5-5-5-5-5-5-5-5-5-|-5-----|-(5)----*|
G#|-2-2-2-2-2-2-2-2-2-|-2-2-2-2-2-2-2-2-2-|-2-----|-(2)----*|
D#|-------------------|-------------------|-0-----|-(0)----*|

So it's...

[Main Idea] x2
[Main Idea] x2 w/Intro lead
[Main Idea] x2
[Break] x4
[Main Idea] x2
[Main Idea] x2 w/Trem picked lead
[Verse 3], New Pattern with leads
Then continue the outro.

[Key]
W - whole note
H - half note
Q - quarter note
E - eighth note
S - sixteenth note

|--15tp------|
|---/--------|   Tremolo picked note.
|---/--------|

Thanks for looking. Love, peace and good happiness stuff.
Suggest correction
comments
print report bad tab
1 comment total.
0 reply
Perfekte 93 Aug 31, 2011 02:40 PM

I left a bit out. When you're playing the inverted chords near the end, the second time round you finish it with this.


| E S S E E S S S S E S S E E S S S S 3x
|-------------------|-2-2-2-2---5-5-5-5-5--||
|-3-3-3-3-3-3-3-3-3-|-3-3-3-3---3-3-3-3-3-o||
|-4-4-4-4-4-4-4-4-4-|-4-4-4-4---4-4-4-4-4--||
|-5-5-5-5-5-5-5-5-5-|----------------------||
|-------------------|---------------------o||
|-------------------|----------------------||
|
| E S S E E S S S S E S S E E S S S S 3x
|-------------------|----------------------||
|-------------------|---------------------o||
|-------------------|-4-4-4-4---4-4-4-4-4--||
|-5-5-5-5-5-5-5-5-5-|-2-2-2-2---2-2-2-2-2--||
|-2-2-2-2-2-2-2-2-2-|---------------------o||
|-------------------|----------------------||

Note the 5s on the high e string. It's very minor but I thought I'd be complete. Support Alcest!

guest
You may want to rate the tab now too:
select rating
Wanna post a correction for this tab? Suggest correction