Oops, an error
Loading. Please wait.

13 Years Bad Luck tab

by Alcoa
226 views 9 this week
no commentswrite comment
1 2 3 4 5
1 last vote to show rating
add to favorites
×
Save as Personal and add changes to this tab that will be seen only by you. Learn more ›
×
You can save this tab as Personal to edit and correct it or add notes. All changes will be seen only by you. Learn more »
launch autoscroll
font size
0
reset
how to read this tab
guitar tuner
edit
Autoscroll
slow
fast
+/-
esc
set tempo
stop
Author
Alcoa
13 Years Bad Luck
Parlour Tricks

Tuning - Full Step Down
Capo 2


[Intro]

d|----3--3-3-3----3--3-3-3----2--2-2-2----2--2-2-2----3--3-3-3----3--3-3-3----2--2-2-2----2--2-2-2-|
A|----3--3-3-3----3--3-3-3----3--3-3-3----3--3-3-3----3--3-3-3----3--3-3-3----3--3-3-3----3--3-3-3-|
F|----0--0-0-0----0--0-0-0----0--0-0-0----0--0-0-0----0--0-0-0----0--0-0-0----0--0-0-0----0--0-0-0-|
C|----0--0-0-0----0--0-0-0----0--0-0-0----0--0-0-0-------------------------------------------------|
G|-------------------------------------------------3--3--3-3-3-3--3--3-3-3-3--3--3-3-3-3--3--3-3-3-|
D|-3--3--3-3-3-3--3--3-3-3-3--3--3-3-3-3--3--3-3-3-------------------------------------------------|

d|----0--0-0-0----0--0-0-0----0--0-0-0----0--0-0-0----3--3-3-3----3--3-3-3----2--2-2-2----2--2-2-2-|
A|----3--3-3-3----3--3-3-3----3--3-3-3----3--3-3-3----3--3-3-3----3--3-3-3----3--3-3-3----3--3-3-3-|
F|----0--0-0-0----0--0-0-0----2--2-2-2----2--2-2-2----0--0-0-0----0--0-0-0----0--0-0-0----0--0-0-0-|
C|----2--2-2-2----2--2-2-2----0--0-0-0----0--0-0-0-------------------------------------------------|
G|----2--2-2-2----2--2-2-2-------------------------3--3--3-3-3-3--3--3-3-3-3--3--3-3-3-3--3--3-3-3-|
D|-0--0--0-0-0-0--0--0-0-0-2--2--2-2-2-2--2--2-2-2-------------------------------------------------|


[Verse]

d|----3--3-3-3----3--3-3-3----3--3-3-3----3--3-3-3----3--3-3-3----3--3-3-3----3--3-3-3----3--3-3-3-|
A|----3--3-3-3----3--3-3-3----3--3-3-3----3--3-3-3----3--3-3-3----3--3-3-3----3--3-3-3----3--3-3-3-|
F|----0--0-0-0----0--0-0-0----0--0-0-0----0--0-0-0----0--0-0-0----0--0-0-0----0--0-0-0----0--0-0-0-|
C|----0--0-0-0----0--0-0-0----0--0-0-0----0--0-0-0-------------------------------------------------|
G|-------------------------------------------------3--3--3-3-3-3--3--3-3-3-3--3--3-3-3-3--3--3-3-3-|
D|-3--3--3-3-3-3--3--3-3-3-3--3--3-3-3-3--3--3-3-3-------------------------------------------------|
I drove for what seemed like all night just to lock it in a drawer and hide at your bedside. 

d|----3--3-3-3----3--3-3-3----3--3-3-3----3--3-3-3----3--3-3-3----3--3-3-3----2--2-2-2----2--2-2-2-|
A|----3--3-3-3----3--3-3-3----3--3-3-3----3--3-3-3----3--3-3-3----3--3-3-3----3--3-3-3----3--3-3-3-|
F|----0--0-0-0----0--0-0-0----2--2-2-2----2--2-2-2----0--0-0-0----0--0-0-0----0--0-0-0----0--0-0-0-|
C|----2--2-2-2----2--2-2-2----0--0-0-0----0--0-0-0-------------------------------------------------|
G|----2--2-2-2----2--2-2-2-------------------------3--3--3-3-3-3--3--3-3-3-3--3--3-3-3-3--3--3-3-3-|
D|-0--0--0-0-0-0--0--0-0-0-2--2--2-2-2-2--2--2-2-2-------------------------------------------------|
I had Mr. Connelley to keep me company.

d|----3--3-3-3----3--3-3-3----3--3-3-3----3--3-3-3----3--3-3-3----3--3-3-3----3--3-3-3----3--3-3-3-|
A|----3--3-3-3----3--3-3-3----3--3-3-3----3--3-3-3----3--3-3-3----3--3-3-3----3--3-3-3----3--3-3-3-|
F|----0--0-0-0----0--0-0-0----0--0-0-0----0--0-0-0----0--0-0-0----0--0-0-0----0--0-0-0----0--0-0-0-|
C|----0--0-0-0----0--0-0-0----0--0-0-0----0--0-0-0-------------------------------------------------|
G|-------------------------------------------------3--3--3-3-3-3--3--3-3-3-3--3--3-3-3-3--3--3-3-3-|
D|-3--3--3-3-3-3--3--3-3-3-3--3--3-3-3-3--3--3-3-3-------------------------------------------------|
I was so lost when you found me. Or did I find you? I can't remember it clearly.

d|----0--0-0-0----0--0-0-0----0--0-0-0----0--0-0-0----3--3-3-3----3--3-3-3----2--2-2-2----2--2-2-2-|
A|----3--3-3-3----3--3-3-3----3--3-3-3----3--3-3-3----3--3-3-3----3--3-3-3----3--3-3-3----3--3-3-3-|
F|----0--0-0-0----0--0-0-0----2--2-2-2----2--2-2-2----0--0-0-0----0--0-0-0----0--0-0-0----0--0-0-0-|
C|----2--2-2-2----2--2-2-2----0--0-0-0----0--0-0-0-------------------------------------------------|
G|----2--2-2-2----2--2-2-2-------------------------3--3--3-3-3-3--3--3-3-3-3--3--3-3-3-3--3--3-3-3-|
D|-0--0--0-0-0-0--0--0-0-0-2--2--2-2-2-2--2--2-2-2-------------------------------------------------|
Either way, the mess I made deserved a trophy.

d|----0--0-0-0----0--0-0-0----0--0-0-0----0--0-0-0----3--3-3-3----3--3-3-3----2--2-2-2----2--2-2-2-|
A|----3--3-3-3----3--3-3-3----3--3-3-3----3--3-3-3----3--3-3-3----3--3-3-3----3--3-3-3----3--3-3-3-|
F|----0--0-0-0----0--0-0-0----2--2-2-2----2--2-2-2----0--0-0-0----0--0-0-0----0--0-0-0----0--0-0-0-|
C|----2--2-2-2----2--2-2-2----0--0-0-0----0--0-0-0-------------------------------------------------|
G|----2--2-2-2----2--2-2-2-------------------------3--3--3-3-3-3--3--3-3-3-3--3--3-3-3-3--3--3-3-3-|
D|-0--0--0-0-0-0--0--0-0-0-2--2--2-2-2-2--2--2-2-2-------------------------------------------------|
Cause boys and girls fall in and out of love so quickly.


[Instrumental]

d|----3--3-3-3----3--3-3-3----2--2-2-2----2--2-2-2----3--3-3-3----3--3-3-3----2--2-2-2----2--2-2-2-|
A|----3--3-3-3----3--3-3-3----3--3-3-3----3--3-3-3----3--3-3-3----3--3-3-3----3--3-3-3----3--3-3-3-|
F|----0--0-0-0----0--0-0-0----0--0-0-0----0--0-0-0----0--0-0-0----0--0-0-0----0--0-0-0----0--0-0-0-|
C|----0--0-0-0----0--0-0-0----0--0-0-0----0--0-0-0-------------------------------------------------|
G|-------------------------------------------------3--3--3-3-3-3--3--3-3-3-3--3--3-3-3-3--3--3-3-3-|
D|-3--3--3-3-3-3--3--3-3-3-3--3--3-3-3-3--3--3-3-3-------------------------------------------------|

d|----0--0-0-0----0--0-0-0----0--0-0-0----0--0-0-0----3--3-3-3----3--3-3-3----2--2-2-2----2--2-2-2-|
A|----3--3-3-3----3--3-3-3----3--3-3-3----3--3-3-3----3--3-3-3----3--3-3-3----3--3-3-3----3--3-3-3-|
F|----0--0-0-0----0--0-0-0----2--2-2-2----2--2-2-2----0--0-0-0----0--0-0-0----0--0-0-0----0--0-0-0-|
C|----2--2-2-2----2--2-2-2----0--0-0-0----0--0-0-0-------------------------------------------------|
G|----2--2-2-2----2--2-2-2-------------------------3--3--3-3-3-3--3--3-3-3-3--3--3-3-3-3--3--3-3-3-|
D|-0--0--0-0-0-0--0--0-0-0-2--2--2-2-2-2--2--2-2-2-------------------------------------------------|


[Verse]

d|----3--3-3-3----3--3-3-3----3--3-3-3----3--3-3-3----3--3-3-3----3--3-3-3----3--3-3-3----3--3-3-3-|
A|----3--3-3-3----3--3-3-3----3--3-3-3----3--3-3-3----3--3-3-3----3--3-3-3----3--3-3-3----3--3-3-3-|
F|----0--0-0-0----0--0-0-0----0--0-0-0----0--0-0-0----0--0-0-0----0--0-0-0----0--0-0-0----0--0-0-0-|
C|----0--0-0-0----0--0-0-0----0--0-0-0----0--0-0-0-------------------------------------------------|
G|-------------------------------------------------3--3--3-3-3-3--3--3-3-3-3--3--3-3-3-3--3--3-3-3-|
D|-3--3--3-3-3-3--3--3-3-3-3--3--3-3-3-3--3--3-3-3-------------------------------------------------|
All your plans fell through before you had a chance to tell me I was so hung up on a ghost that kept me...

d|----3--3-3-3----3--3-3-3----3--3-3-3----3--3-3-3----3--3-3-3----3--3-3-3----2--2-2-2----2--2-2-2-|
A|----3--3-3-3----3--3-3-3----3--3-3-3----3--3-3-3----3--3-3-3----3--3-3-3----3--3-3-3----3--3-3-3-|
F|----0--0-0-0----0--0-0-0----2--2-2-2----2--2-2-2----0--0-0-0----0--0-0-0----0--0-0-0----0--0-0-0-|
C|----2--2-2-2----2--2-2-2----0--0-0-0----0--0-0-0-------------------------------------------------|
G|----2--2-2-2----2--2-2-2-------------------------3--3--3-3-3-3--3--3-3-3-3--3--3-3-3-3--3--3-3-3-|
D|-0--0--0-0-0-0--0--0-0-0-2--2--2-2-2-2--2--2-2-2-------------------------------------------------|
Haunting all the same corridors of one or two or more's.

d|----3--3-3-3----3--3-3-3----3--3-3-3----3--3-3-3----3--3-3-3----3--3-3-3----3--3-3-3----3--3-3-3-|
A|----3--3-3-3----3--3-3-3----3--3-3-3----3--3-3-3----3--3-3-3----3--3-3-3----3--3-3-3----3--3-3-3-|
F|----0--0-0-0----0--0-0-0----0--0-0-0----0--0-0-0----0--0-0-0----0--0-0-0----0--0-0-0----0--0-0-0-|
C|----0--0-0-0----0--0-0-0----0--0-0-0----0--0-0-0-------------------------------------------------|
G|-------------------------------------------------3--3--3-3-3-3--3--3-3-3-3--3--3-3-3-3--3--3-3-3-|
D|-3--3--3-3-3-3--3--3-3-3-3--3--3-3-3-3--3--3-3-3-------------------------------------------------|
Now we moved on. All grown up. Thirteen years bad luck. Every lie I told, heart I broke, name I didn't know.

d|----3--3-3-3----3--3-3-3----2--2-2-2----2--2-2-2----3--3-3-3----3--3-3-3----2--2-2-2----2--2-2-2-|
A|----3--3-3-3----3--3-3-3----3--3-3-3----3--3-3-3----3--3-3-3----3--3-3-3----3--3-3-3----3--3-3-3-|
F|----0--0-0-0----0--0-0-0----2--2-2-2----2--2-2-2----0--0-0-0----0--0-0-0----0--0-0-0----0--0-0-0-|
C|----2--2-2-2----2--2-2-2----0--0-0-0----0--0-0-0-------------------------------------------------|
G|----2--2-2-2----2--2-2-2-------------------------3--3--3-3-3-3--3--3-3-3-3--3--3-3-3-3--3--3-3-3-|
D|-0--0--0-0-0-0--0--0-0-0-2--2--2-2-2-2--2--2-2-2-------------------------------------------------|
The mess in me deserved a trophy. 

d|----3--3-3-3----3--3-3-3----3--3-3-3----3--3-3-3----3--3-3-3----3--3-3-3----2--2-2-2----2--2-2-2-|
A|----3--3-3-3----3--3-3-3----3--3-3-3----3--3-3-3----3--3-3-3----3--3-3-3----3--3-3-3----3--3-3-3-|
F|----0--0-0-0----0--0-0-0----2--2-2-2----2--2-2-2----0--0-0-0----0--0-0-0----0--0-0-0----0--0-0-0-|
C|----2--2-2-2----2--2-2-2----0--0-0-0----0--0-0-0-------------------------------------------------|
G|----2--2-2-2----2--2-2-2-------------------------3--3--3-3-3-3--3--3-3-3-3--3--3-3-3-3--3--3-3-3-|
D|-0--0--0-0-0-0--0--0-0-0-2--2--2-2-2-2--2--2-2-2-------------------------------------------------|
I still got Mr. Connelley to keep me company.


[Outro]

d|----3--3-3-3----3--3-3-3----2--2-2-2----2--2-2-2----3--3-3-3----3--3-3-3----2--2-2-2----2--2-2-2-|
A|----3--3-3-3----3--3-3-3----3--3-3-3----3--3-3-3----3--3-3-3----3--3-3-3----3--3-3-3----3--3-3-3-|
F|----0--0-0-0----0--0-0-0----0--0-0-0----0--0-0-0----0--0-0-0----0--0-0-0----0--0-0-0----0--0-0-0-|
C|----0--0-0-0----0--0-0-0----0--0-0-0----0--0-0-0-------------------------------------------------|
G|-------------------------------------------------3--3--3-3-3-3--3--3-3-3-3--3--3-3-3-3--3--3-3-3-|
D|-3--3--3-3-3-3--3--3-3-3-3--3--3-3-3-3--3--3-3-3-------------------------------------------------|

d|----0--0-0-0----0--0-0-0----0--0-0-0----0--0-0-0----3--3-3-3----3--3-3-3----2--2-2-2----2--2-2-2-|
A|----3--3-3-3----3--3-3-3----3--3-3-3----3--3-3-3----3--3-3-3----3--3-3-3----3--3-3-3----3--3-3-3-|
F|----0--0-0-0----0--0-0-0----2--2-2-2----2--2-2-2----0--0-0-0----0--0-0-0----0--0-0-0----0--0-0-0-|
C|----2--2-2-2----2--2-2-2----0--0-0-0----0--0-0-0-------------------------------------------------|
G|----2--2-2-2----2--2-2-2-------------------------3--3--3-3-3-3--3--3-3-3-3--3--3-3-3-3--3--3-3-3-|
D|-0--0--0-0-0-0--0--0-0-0-2--2--2-2-2-2--2--2-2-2-------------------------------------------------|

d|----2--2-2-2----2--2-2-2----2--------------------------------------------------------------------|
A|----3--3-3-3----3--3-3-3----3--------------------------------------------------------------------|
F|----0--0-0-0----0--0-0-0----0--------------------------------------------------------------------|
C|-------------------------------------------------------------------------------------------------|
G|-3--3--3-3-3-3--3--3-3-3-3--3--------------------------------------------------------------------|
D|-------------------------------------------------------------------------------------------------|


************************************

| x   Dead note
| g   Grace note
| (n) Ghost note
| h   Hammer-on
| p   Pull-off
| r   Release
| >   Accented note
| t   Tapping
| b   Bend
| br  Bend release
| pb  Pre-bend
| pbr Pre-bend release
| /   Slide up
| \   Slide down
| ~   Vibrato
| s   Slap
| P   Pop
| PM  Palm mute
| TR  Trill
| N   Tremolo

************************************


Questions?
Email at cory.roesch@yahoo.com

            
            
Suggest correction
Creating personal tab
Creating personal tab
You can edit any tab online and save it as your Personal.

You can edit, replace or remove any tab part or add personal notes – all changes will be seen only by you.

Personal tabs can be accessed anytime from any device, even offline.
Learn more »
Give kudos to tab author, rate the tab!
1 2 3 4 5
comments
print report bad tab
guest
You may want to rate the tab now too:
select rating
Wanna post a correction for this tab? Suggest correction