Oops, an error
Loading. Please wait.

Whos Gonna Carry You Home tab

by Alcoa
256 views 6 this week
no commentswrite comment
1 2 3 4 5
3 more votes to show rating
add to favorites
×
Save as Personal and add changes to this tab that will be seen only by you. Learn more ›
×
You can save this tab as Personal to edit and correct it or add notes. All changes will be seen only by you. Learn more »
launch autoscroll
font size
0
reset
how to read this tab
guitar tuner
edit
Autoscroll
slow
fast
+/-
esc
set tempo
stop
Author
Alcoa
Who's Gonna Carry You Home?
Thank You

Note: Alcoa plays in full step down but this song is capo'd on two
so it's standard tuning or full step down, capo on two.


[Chorus]

e|-----3----3-3-3----3-------3-3----3----3-3-3---3---3-3-3-|
B|-----3----3-3-3----3-------3-3----3----3-3-3---3---3-3-3-|
G|-----0----0-0-0----0-------0-0----0----0-0-0---0---0-0-0-|
D|-----0----0-0-0----0-------------------------------------|
A|-----------------------2---2-3----3----3-3-3---3---3-3-3-|
E|-3---3----3-3-3----3-------------------------------------|
Well if I walk away, then who's gonna carry you home?

e|-----3----3-3-3----3-3------3-3----3----3-3-3---3---3-3-3-|
B|-----3----3-3-3----3-3------3-3----3----3-3-3---3---3-3-3-|
G|-----0----0-0-0----0-0------0-0----0----0-0-0---0---0-0-0-|
D|-----0----0-0-0----0-0------------------------------------|
A|------------------------2---2-3----3----3-3-3---3---3-3-3-|
E|-3---3----3-3-3----3-3------------------------------------|
And if I walk away, then who's gonna carry you home?

e|-----3-3-----3-3-------3---3-3-3-----3-3-----3-3-------3-|
B|-----3-3-----3-3-------3---3-3-3-----3-3-----3-3-------3-|
G|-----2-2-----0-0-------0---0-0-0-----2-2-----0-0-------0-|
D|-----2-2-----------------------------2-2-----------------|
A|-0---0-0-2---2-2-0h2-2-3---3-3-3-0---0-0-2---2-2-0h2-2-3-|
E|---------------------------------------------------------|
And we may have had a bit too much, but no one has to know.

e|-----3----3-3-3----3-3------3-3----3----3-3-3---3---3-3-3-|
B|-----3----3-3-3----3-3------3-3----3----3-3-3---3---3-3-3-|
G|-----0----0-0-0----0-0------0-0----0----0-0-0---0---0-0-0-|
D|-----0----0-0-0----0-0------------------------------------|
A|------------------------2---2-3----3----3-3-3---3---3-3-3-|
E|-3---3----3-3-3----3-3------------------------------------|
If I walk away, then who's gonna carry you home?

e|-----3----3-3-3---3---3-3-3-----3----3-3-3---3---3-3-3-|
B|-----3----3-3-3---3---3-3-3-----3----3-3-3---3---3-3-3-|
G|-----0----0-0-0---0---0-0-0-----0----0-0-0---0---0-0-0-|
D|-----0----0-0-0---0---0-0-0----------------------------|
A|----------------------------3---3----3-3-3---3---3-3-3-|
E|-3---3----3-3-3---3---3-3-3----------------------------|
Carry you home.


[Interlude]

e|-----3----3-3-3---3---3-3-3-----3----3-3-3---3---3-3-3-|
B|-----3----3-3-3---3---3-3-3-----3----3-3-3---3---3-3-3-|
G|-----0----0-0-0---0---0-0-0-----0----0-0-0---0---0-0-0-|
D|-----0----0-0-0---0---0-0-0----------------------------|
A|----------------------------3---3----3-3-3---3---3-3-3-|
E|-3---3----3-3-3---3---3-3-3----------------------------|


[Verse]

e|-----3----3-3-3---3---3-3-3-----3----3-3-3----3---3-3-3-|
B|-----3----3-3-3---3---3-3-3-----3----3-3-3----3---3-3-3-|
G|-----0----0-0-0---0---0-0-0-----0----0-0-0----0---0-0-0-|
D|-----0----0-0-0---0---0-0-0-----------------------------|
A|----------------------------3---3----3-3-3-3--3---3-3-3-|
E|-3---3----3-3-3---3---3-3-3-----------------------------|
Well we came here for the weekend. It was your friends idea.

e|-----3----3-3-3-----3----3-3-3-----3----3-3-3---3----3-3-3-|
B|-----3----3-3-3-----3----3-3-3-----3----3-3-3---3----3-3-3-|
G|-----0----0-0-0-----0----0-0-0-----0----0-0-0---0----0-0-0-|
D|-----2----2-2-2--------------------------------------------|
A|-----2----2-2-2-2---2----2-2-2-3---3----3-3-3---3----3-3-3-|
E|-0---0----0-0-0--------------------------------------------|
And it started as just a few of us, now everybody's here.

e|-----3----3-3-3----3---3-3-3-----3----3-3-3----3---3-3-3-|
B|-----3----3-3-3----3---3-3-3-----3----3-3-3----3---3-3-3-|
G|-----0----0-0-0----0---0-0-0-----0----0-0-0----0---0-0-0-|
D|-----0----0-0-0----0---0-0-0-----------------------------|
A|-----------------------------3---3----3-3-3-3--3---3-3-3-|
E|-3---3----3-3-3-3--3---3-3-3-----------------------------|
You turned your head, you said "Derrick, I'm not really one for crowds."

e|-----3----3-3-3-----3----3-3-3-----3----3-3-3---3----3-3-3-|
B|-----3----3-3-3-----3----3-3-3-----3----3-3-3---3----3-3-3-|
G|-----0----0-0-0-----0----0-0-0-----0----0-0-0---0----0-0-0-|
D|-----2----2-2-2--------------------------------------------|
A|-----2----2-2-2-2---2----2-2-2-3---3----3-3-3---3----3-3-3-|
E|-0---0----0-0-0--------------------------------------------|
And you took off out that window just as fast as legs allow.

e|-----3----3-3-3-----3----3-3-3-----3-----------------3-3-3-|
B|-----3----3-3-3-----3----3-3-3-----3-----------------3-3-3-|
G|-----2----2-2-2-----0----0-0-0-----0-----------------0-0-0-|
D|-----2----2-2-2--------------------------------------------|
A|-0---0----0-0-0-2---2----2-2-2-3---3-----------------3-3-3-|
E|-----------------------------------------------------------|
And I thought if we just slowed down, we might start making sense.


[Chorus]

e|-----3----3-3-3----3-------3-3----3----3-3-3---3---3-3-3-|
B|-----3----3-3-3----3-------3-3----3----3-3-3---3---3-3-3-|
G|-----0----0-0-0----0-------0-0----0----0-0-0---0---0-0-0-|
D|-----0----0-0-0----0-------------------------------------|
A|-----------------------2---2-3----3----3-3-3---3---3-3-3-|
E|-3---3----3-3-3----3-------------------------------------|
If I walk away, then who's gonna carry you home?

e|-----3----3-3-3----3-------3-3----3----3-3-3---3---3-3-3-|
B|-----3----3-3-3----3-------3-3----3----3-3-3---3---3-3-3-|
G|-----0----0-0-0----0-------0-0----0----0-0-0---0---0-0-0-|
D|-----0----0-0-0----0-------------------------------------|
A|-----------------------2---2-3----3----3-3-3---3---3-3-3-|
E|-3---3----3-3-3-3--3-------------------------------------|
And if I walk away, then who's gonna carry you home?

e|-----3-3-----3-3-------3---3-3-3-----3-3-----3-3-------3-|
B|-----3-3-----3-3-------3---3-3-3-----3-3-----3-3-------3-|
G|-----2-2-----0-0-------0---0-0-0-----2-2-----0-0-------0-|
D|-----2-2-----------------------------2-2-----------------|
A|-0---0-0-2---2-2-0h2-2-3---3-3-3-0---0-0-2---2-2-0h2-2-3-|
E|---------------------------------------------------------|
Well we may have had a bit too much, but no one has to know.

e|-----3----3-3-3----3-3------3-3----3----3-3-3---3---3-3-3-|
B|-----3----3-3-3----3-3------3-3----3----3-3-3---3---3-3-3-|
G|-----0----0-0-0----0-0------0-0----0----0-0-0---0---0-0-0-|
D|-----0----0-0-0----0-0------------------------------------|
A|------------------------2---2-3----3----3-3-3---3---3-3-3-|
E|-3---3----3-3-3----3-3------------------------------------|
If I walk away, then who's gonna carry you home?

e|-----3----3-3-3---3---3-3-3-----3----3-3-3---3---3-3-3-|
B|-----3----3-3-3---3---3-3-3-----3----3-3-3---3---3-3-3-|
G|-----0----0-0-0---0---0-0-0-----0----0-0-0---0---0-0-0-|
D|-----0----0-0-0---0---0-0-0----------------------------|
A|----------------------------3---3----3-3-3---3---3-3-3-|
E|-3---3----3-3-3---3---3-3-3----------------------------|
Carry you home.


[Interlude]

e|-----3----3-3-3---3---3-3-3-----3----3-3-3---3---3-3-3-|
B|-----3----3-3-3---3---3-3-3-----3----3-3-3---3---3-3-3-|
G|-----0----0-0-0---0---0-0-0-----0----0-0-0---0---0-0-0-|
D|-----0----0-0-0---0---0-0-0----------------------------|
A|----------------------------3---3----3-3-3---3---3-3-3-|
E|-3---3----3-3-3---3---3-3-3----------------------------|


[Verse]

e|-----3----3-3-3---3---3-3-3-----3----3-3-3---3---3-3-3-|
B|-----3----3-3-3---3---3-3-3-----3----3-3-3---3---3-3-3-|
G|-----0----0-0-0---0---0-0-0-----0----0-0-0---0---0-0-0-|
D|-----0----0-0-0---0---0-0-0----------------------------|
A|----------------------------3---3----3-3-3---3---3-3-3-|
E|-3---3----3-3-3---3---3-3-3----------------------------|
So you shivered under covers in the tail end of the summer.

e|-----3----3-3-3-----3----3-3-3-----3----3-3-3---3----3-3-3-|
B|-----3----3-3-3-----3----3-3-3-----3----3-3-3---3----3-3-3-|
G|-----0----0-0-0-----0----0-0-0-----0----0-0-0---0----0-0-0-|
D|-----2----2-2-2--------------------------------------------|
A|-----2----2-2-2-2---2----2-2-2-3---3----3-3-3---3----3-3-3-|
E|-0---0----0-0-0--------------------------------------------|
A certain sick no medicine could tame.

e|-----3----3-3-3---3---3-3-3-----3----3-3-3---3---3-3-3-|
B|-----3----3-3-3---3---3-3-3-----3----3-3-3---3---3-3-3-|
G|-----0----0-0-0---0---0-0-0-----0----0-0-0---0---0-0-0-|
D|-----0----0-0-0---0---0-0-0----------------------------|
A|----------------------------3---3----3-3-3---3---3-3-3-|
E|-3---3----3-3-3---3---3-3-3----------------------------|
And we were just kids, that's the hardest part. The things we build just to rip them apart.

e|-----3----3-3-3-----3----3-3-3-----3----3-3-3---3----3-3-3-|
B|-----3----3-3-3-----3----3-3-3-----3----3-3-3---3----3-3-3-|
G|-----0----0-0-0-----0----0-0-0-----0----0-0-0---0----0-0-0-|
D|-----2----2-2-2--------------------------------------------|
A|-----2----2-2-2-2---2----2-2-2-3---3----3-3-3---3----3-3-3-|
E|-0---0----0-0-0--------------------------------------------|
Oh, you ripped me apart.

e|-----3----3-3-3-----3----3-3-3-----3-----------------3-3-3-|
B|-----3----3-3-3-----3----3-3-3-----3-----------------3-3-3-|
G|-----2----2-2-2-----0----0-0-0-----0-----------------0-0-0-|
D|-----2----2-2-2--------------------------------------------|
A|-0---0----0-0-0-2---2----2-2-2-3---3-----------------3-3-3-|
E|-----------------------------------------------------------|
And I thought if we just slowed down we might start making sense.


[Chorus]

e|-----3----3-3-3----3-3------3-3----3----3-3-3---3---3-3-3-|
B|-----3----3-3-3----3-3------3-3----3----3-3-3---3---3-3-3-|
G|-----0----0-0-0----0-0------0-0----0----0-0-0---0---0-0-0-|
D|-----0----0-0-0----0-0------------------------------------|
A|------------------------2---2-3----3----3-3-3---3---3-3-3-|
E|-3---3----3-3-3----3-3------------------------------------|
If I walk away, then who's gonna carry you home?

e|-----3----3-3-3----3-3------3-3----3----3-3-3---3---3-3-3-|
B|-----3----3-3-3----3-3------3-3----3----3-3-3---3---3-3-3-|
G|-----0----0-0-0----0-0------0-0----0----0-0-0---0---0-0-0-|
D|-----0----0-0-0----0-0------------------------------------|
A|------------------------2---2-3----3----3-3-3---3---3-3-3-|
E|-3---3----3-3-3----3-3------------------------------------|
If I walk away, then who's gonna carry you home?

e|-----3-3-----3-3-------3---3-3-3-----3-3-----3-3-------3---3-3-3-|
B|-----3-3-----3-3-------3---3-3-3-----3-3-----3-3-------3---3-3-3-|
G|-----2-2-----0-0-------0---0-0-0-----2-2-----0-0-------0---0-0-0-|
D|-----2-2-----------------------------2-2-------------------------|
A|-0---0-0-2---2-2-0h2-2-3---3-3-3-0---0-0-2---2-2-0h2-2-3---3-3-3-|
E|-----------------------------------------------------------------|
Well I came here with my baby and I'm not leaving here alone.

e|-----3----3-3-3----3-3------3-3----3----3-3-3---3---3--3-3-|
B|-----3----3-3-3----3-3------3-3----3----3-3-3---3---3--3-3-|
G|-----0----0-0-0----0-0------0-0----0----0-0-0---0---0--0-0-|
D|-----0----0-0-0----0-0-------------------------------------|
A|------------------------2---2-3----3----3-3-3---3---3--3-3-|
E|-3---3----3-3-3----3-3-------------------------------------|
But if I walk away, then who's gonna carry you home?

e|-3-|
B|-3-|
G|-0-|
D|-0-|
A|---|
E|-3-|
Carry you home.


************************************

| h  Hammer-on

************************************
Suggest correction
Creating personal tab
Creating personal tab
You can edit any tab online and save it as your Personal.

You can edit, replace or remove any tab part or add personal notes – all changes will be seen only by you.

Personal tabs can be accessed anytime from any device, even offline.
Learn more »
Give kudos to tab author, rate the tab!
1 2 3 4 5
comments
print report bad tab
guest
You may want to rate the tab now too:
select rating
Wanna post a correction for this tab? Suggest correction