Oops, an error
Loading. Please wait.

Fantasy tab

version 4
version 4

Whole song

Interactive

40 views 1 this week
no commentswrite comment
1 2 3 4 5
3 more votes to show rating
add to favorites
×
Save as Personal and add changes to this tab that will be seen only by you. Learn more ›
×
You can save this tab as Personal to edit and correct it or add notes. All changes will be seen only by you. Learn more »
launch autoscroll
font size
0
reset
how to read this tab
guitar tuner
backing track
0:00
0:00
edit
Autoscroll
slow
fast
+/-
esc
set tempo
stop
Aldo Nova
   Fantasy
   Tabbed by Gino Dowens


   [1:05]
  e|-----------------------------------|
  B|-----------------------------------|
  G|------------5-----------------5-5--|
  D|--5\-8\---5-5-8---5\-8\---3-3-5-5--| X3
  A|--5\-8\---5-3-8---5\-8\---3-3-3-3--|
  E|--3\-6\---3---6---3\-6\---1-1------|

   [1:20]
  e|--18--17--15--13------------------|
  B|------------------15--13--11--10--|
  G|----------------------------------|
  D|----------------------------------| X2
  A|----------------------------------|
  E|----------------------------------|

   [1:34]
  e|------------------------------------------------------------|
  B|------------------------------------------------------------|
  G|--------3------------5--5----------3------------------5--5--|
  D|-----5--3------3--3--5--5------5---3------------3--3--5--5--| X4
  A|-----5--1------3--3--3--3------5---1------------3--3--3--3--|
  E|-----3---------1--1------------3----------------1--1--------|
    City nights, summer breeze makes you feel alright.

   [2:04]
  e|--18--17--15--13------------------|
  B|------------------15--13--11--10--|
  G|----------------------------------|
  D|----------------------------------| X2
  A|----------------------------------|
  E|----------------------------------|

   [2:18]
  e|-----------------------------------------------------------------|
  B|-----------------------------------------------------------------|
  G|--------3-------------5--5-----------3---------------------5--5--|
  D|-----5--3------3--3---5--5-------5---3---------------3--3--5--5--| X4
  A|-----5--1------3--3---3--3-------5---1---------------3--3--3--3--|
  E|-----3---------1--1--------------3-------------------1--1--------|
    Out of sight, by your kicks from the man in the white

   [2:47]
  e|---------------------------------------------------------------|
  B|---------------------------------------------------------------|
  G|-8--------------------7---8-------------7-7--------------------|
  D|-8--------------------7---8-------------7-7--------------------|
  A|-6--------------------5---6-------------5-5--------------------|
  E|---------------------------------------------------------------|
     Forget all that you see, it's not reality. It's just a fantasy.

   [2:55]
  e|----------------------------------------------------------------|
  B|----------------------------------------------------------------|
  G|--------3-------------5--5----------3---------------------5--5--|
  D|-----5--3-------3--3--5--5------5---3---------------3--3--5--5--| X2
  A|-----5--1-------3--3--3--3------5---1---------------3--3--3--3--|
  E|-----3----------1--1------------3-------------------1--1--------|
    Can't you see, what this crazy life is doing to me

Note: Play above riff, then transition into this
  e|--18--17--15--13------------------|
  B|------------------15--13--11--10--|
  G|----------------------------------|
  D|----------------------------------|
  A|----------------------------------|
  E|----------------------------------|

Note: Transition back into this once more.
  e|----------------------------------------------------------------|
  B|----------------------------------------------------------------|
  G|--------3-------------5--5----------3---------------------5--5--|
  D|-----5--3-------3--3--5--5------5---3---------------3--3--5--5--|
  A|-----5--1-------3--3--3--3------5---1---------------3--3--3--3--|
  E|-----3----------1--1------------3-------------------1--1--------|


   [Solo (3:17)]
  e|--------15-------15-------15-------15-------15-18fb-15h18p15------18fb--|
  B|--18fb-----18fb-----18fb-----18fb-----18fb------------------18p15-------|
  G|------------------------------------------------------------------------|
  D|------------------------------------------------------------------------|
  A|------------------------------------------------------------------------|
  E|------------------------------------------------------------------------|

   [3:24]
  e|-------3----------3----------3----------3----------3--------------------|
  B|---------6p3--------6p3--------6p3--------6p3--------6p3----------------|
  G|--5fb--------5fb--------5fb--------5fb--------5fb--------5fb-5-7p5-5fb--|
  D|------------------------------------------------------------------------|
  A|------------------------------------------------------------------------|
  E|------------------------------------------------------------------------|

   [3:32]
  e|---------------------------------------------------------------------3--|
  B|------------------------------------------------------------3-----------|
  G|--3p0---------3p0---------3p0---------3p0-5p0---------5b7-5---5b7-5-----|
  D|------5p0-3p0-----5p0-3p0-----5p0-3p0---------5p0-3p0-------------------|
  A|------------------------------------------------------------------------|
  E|------------------------------------------------------------------------|

   [3:39]
  e|--13fbp10-13fbp10-13fbp10-13h15p13-13fb~~--|
  B|-------------------------------------------|
  G|-------------------------------------------| ** The Full Bends
  D|-------------------------------------------|    are quickly released
  A|-------------------------------------------|    then do the pull off
  E|-------------------------------------------|

   [3:42]
  e|--15-18-18fbp15-18fbp15-18fbp15-18h20p18-18fb~~-20-18-16~~--|
  B|------------------------------------------------------------|
  G|------------------------------------------------------------|
  D|------------------------------------------------------------|
  A|------------------------------------------------------------|
  E|------------------------------------------------------------|

   [3:46]
  e|-----------------------------------------------------------------|
  B|-----------------------------------------------------------------|
  G|--8---------------------7---8-------------7-7--------------------|
  D|--8---------------------7---8-------------7-7--------------------|
  A|--6---------------------5---6-------------5-5--------------------|
  E|-----------------------------------------------------------------|
    Said forget all that you see, it's not reality. It's just a fantasy.

  [3:54]
  e|------------------------------------------------------------|
  B|------------------------------------------------------------|
  G|--------3------------5--5----------3------------------5--5--|
  D|-----5--3------3--3--5--5------5---3------------3--3--5--5--| X4
  A|-----5--1------3--3--3--3------5---1------------3--3--3--3--|
  E|-----3---------1--1------------3----------------1--1--------|
    Can't you see,  what this crazy life is doing to me

   [4:30]
  e|--18--17--15--13------------------|
  B|------------------15--13--11--10--|
  G|----------------------------------|
  D|----------------------------------| X4
  A|----------------------------------|
  E|----------------------------------|


************************************

| \  Slide down
| h  Hammer-on
| p  Pull-off
| b  Bend
| ~  Vibrato
| fb 
Full bend

************************************

            
            
Suggest correction
Creating personal tab
Creating personal tab
You can edit any tab online and save it as your Personal.

You can edit, replace or remove any tab part or add personal notes – all changes will be seen only by you.

Personal tabs can be accessed anytime from any device, even offline.
Learn more »
Give kudos to tab author, rate the tab!
1 2 3 4 5
comments
print report bad tab
guest
You may want to rate the tab now too:
select rating
Wanna post a correction for this tab? Suggest correction