Oops, an error
Loading. Please wait.

Take Us Back Tab

14,985 views 33 this week
3 commentsread comments
1 2 3 4 5
x 12
add to favorites
launch autoscroll
font size
0
reset
how to read this tab
guitar tuner
×
Best way to learn
"Take Us Back"
Autoscroll
slow
fast
+/-
esc
set tempo
stop
Author
Difficulty
  follow
novice
Tuning: Standard (EADGBe)

[Intro]

Dm
e|-1---------|
B|-3---------|
G|-2---------|
D|-0---------|
A|-----------|
E|-----------|

Am
e|-----------|
B|-1---------|
G|-2---------|
D|-2---------|
A|-0---------|
E|-----------|

G
e|-3---------|
B|-3---------|
G|-0---------|
D|-0---------|
A|-2---------|
E|-3---------|

[Verse]
        Dm          Am          G
e|-----1----1---------------------------------|
B|------------------1-----1------3-----3------|
G|-----2----2---------------------------------| (x2)
D|--0-----0---------2-----2-------------------|
A|---------------0-----0---------2-----2------|
E|----------------------------3-----3---------|

[Chorus]
(Basically the same pattern as the Verse, but I prefer to strum the Chords instead of 
fingerpicking them) (makes it sound even more intense).

        Dm          Am          G
e|-----------------------------------------------------------------|
B|-----------------------------------------------------------------|
G|--5~---4~---2~----------9~---7~---5-4-5--2~----------------------|
D|-----------------------------------------------------------------|
A|-----------------------------------------------------------------|
E|-----------------------------------------------------------------|



************************************

| ~  Vibrato

************************************
Suggest correction
comments
print report bad tab
3 comments total.
+1 reply
dyingturtle 20 Jul 17, 2013 04:40 PM

Thanks for sharing :)

0 reply
ljwasham1 10 Jan 24, 2017 11:47 PM

Great tab, love the walking dead and alela diane

guest
You may want to rate the tab now too:
select rating
Wanna post a correction for this tab? Suggest correction