Oops, an error
Loading. Please wait.

Tatted Lace Tab

3,661 views 3 this week
no commentswrite comment
1 2 3 4 5
2 more votes to show rating
add to favorites
launch autoscroll
font size
0
reset
how to read this tab
guitar tuner
Autoscroll
slow
fast
+/-
esc
set tempo
stop
Help us to improve Ultimate-Guitar.com Take our survey!
×
Author
Difficulty
Capo
intermediate
3rd fret
-------------------------------------------------------------------------------
                             Tatted Lace - Alela Diane
-------------------------------------------------------------------------------
Tabbed by: reedoo

Tuning: Standard

Capo on 3rd

p = right hand thumb 
i = right hand index finger
m = right hand middle finger
a = right hand ring finger


INTRO (play twice)

  C                                  G
e|--------------------3---0---------|------------------3---0-----------------|
B|--------1-------1-----------3---1-|------0-------0-----------3---1---------|
G|----0-------0---------------------|--0-------0-----------------------------|
D|------2-------2-------2-------2---|----0-------0-------0-------0-----------|
A|--3-------3-------3-------3-------|----------------------------------------|
E|----------------------------------|-3-------3-------3-------3--------------|   
    p i p m p i p m p a p a p m p i   p i p m p i p m p a p a p m p i 


  F                                  Am
e|--------1---------------1---------|-------------------3---0----------------|
B|----------------1---------------1-|-------1-------1-----------3---1--------|
G|----2-------2-------2-------2-----|---2-------2----------------------------|
D|------3-------3-------3-------3---|-----2-------2-------2-------2----------|
A|--3-------3-------3-------3-------|-0-------0-------0-------0--------------|
E|----------------------------------|----------------------------------------|
    p i p a p i p m p i p a p i p m   p i p m p i p m p a p a p m p i



VERSE & CHORUS 

  C                                  G
e|----------------------------------|----------------------------------------|
B|--------1-------1-------1-------1-|------0-------0-------0-------0---------|
G|----0-------0-------0-------0-----|--0-------0-------0-------0-------------|
D|------2-------2-------2-------2---|----0-------0-------0-------0-----------|
A|--3-------3-------3-------3-------|----------------------------------------|
E|----------------------------------|-3-------3-------3------3---------------|
    p i p m ...                       p i p m ...


  F                                  Am
e|----------------------------------|----------------------------------------|
B|--------1-------1-------1-------1-|-------1-------1-------1-------1--------|
G|----2-------2-------2-------2-----|---2-------2-------2-------2------------|
D|------3-------3-------3-------3---|-----2-------2-------2-------2----------|
A|--3-------3-------3-------3-------|-0-------0-------0-------0--------------|
E|----------------------------------|----------------------------------------|
    p i p m ...                       p i p m ...



LYRICS

Gold around those fingers shown
Bound for to carry home
Fond of the flattest field
But you know there are bones buried deep down below

Tatted lace frail figure graced
That has since been torn and stained
Tatted lace frail figure graced
That has since been torn and stained
And put, and put so far away, oh, so far away

Novels we don't write
Hearts been lost in flight
Skin in the black of night
Love is a sinking kite

Tatted lace frail figure graced
That has since been torn and stained, oh
Tatted lace frail figure graced
That has since been torn and stained
And put, and put so far away, oh, so far away

Gold around those fingers shown
Bound for to carry home
Suitcase filled with stones
Snow keeps me alone

Suitcase filled with stones
Snow keeps me alone, all alone
All alone, all alone
All alone, all alone, all alone
Suggest correction
Give kudos to tab author, rate the tab!
1 2 3 4 5
comments
print report bad tab
guest
You may want to rate the tab now too:
select rating
Wanna post a correction for this tab? Suggest correction