Oops, an error
Loading. Please wait.

Tired Feet Tab

21,035 views 15 this week
1 commentread comment
1 2 3 4 5
excellent!
x 6
add to favorites
launch autoscroll
font size
0
reset
how to read this tab
guitar tuner
Autoscroll
slow
fast
+/-
esc
set tempo
stop
Help us to improve Ultimate-Guitar.com Take our survey!
×
Difficulty
Capo
novice
1st fret
Alela Diane - My Tired Feet

Capo 1
Am  :  002210
C   :  032010
G   :  320003
Em  :  022000

Intro :

  Am                 Am
e|-------------------------------------------------|
B|-1----1-1----1-1----1----1-1----1-1--------------|
G|-2--2---2--2---2----2--2---2--2---2--------------|
D|-2-2-2--2-2-2--2----2-2-2--2-2-2--2--------------|
A|0------0------0----0------0------0---------------|
E|----------------0-3-----------------0-3----------|

Am              Am
My tired feet, my tired, tired feet
Am              Am
My tired feet, oh my tired feet

  Am             G              Am             G
e|-------------------------------------------------------------|
B|-1----1-1----1--0----0-0----0--1----1-1----1--0----0-0----0--|
G|-2--2---2--2----0--0---0--0----2--2---2--2----0--0---0--0----|
D|-2-2-2--2-2-2---0-0-0--0-0-0---2-2-2--2-2-2---0-0-0--0-0-0---|
A|0------0----------------------0------0-----------------------|
E|---------------3------3----------------------3------3--------|
Am                             G                      Am               G
My tired feet brought me to that red boat so still in foreign waters, uh uh uh

  C      Em     Am     Am
e|--------------------------|
B|-1------0------1--1--1--1-|
G|-0------0------2--2--2--2-|
D|-2---0--2---0--2--2--2--2-|
A|3--3---2--2---0--0--0--0--|
E|--------------------------|

or

  C      Em     Am     Am
e|-----------------------------|
B|-1----1-0----0-1----1-1----1-|
G|-0--0---0--0---2--2---2--2---|
D|-2-2-2--2-2-2--2-2-2--2-2-2--|
A|3------2------0------0-------|
E|-----------------------------|

C               Em       Am       Am
And although I've never been here,
   C           Em       Am         Am
although I've never been here
C           Em      Am     Am     C      Em       Am    Am
I know that here I've swam before, here I've swam before

Am                 Am
And Soon I came, oh so soon I came
Am                Am
Soon I came, oh so soon I came
      C                Em                Am        Am
Soon I came to the silent place of choir voices
C     Em     Am  Am
In Excelsis Deo, Deo
C            Em          Am           Am
Where Jesus he keeps the street out
C            Em          Am           Am
Jesus he keeps the heat out
C            Em          Am           Am
Jesus he keeps the noise out
C            Em          Am           Am
And here, oh, here I've sung before
C            Em          Am           Am
Here, oh, here I've sung before
C            Em          Am           Am
I know that here I've sung before

C            Em          Am           Am
Here I've sat, I've run, I've walked, I've cried
C        Em          Am           Am
Oh! I've died,
C            Em          Am           Am
Oh I've slept in till noon, and I've laughed,
C         Em          Am           Am
And I've sighed
C            Em          Am           Am
I know that here I've sung before
C            Em          Am           Am
Oh Here I've sung before….
C            Em          Am           Am
I know that here I've sung before
  C          Em       Am           Am
Hum Here I've sung before….
Suggest correction new What's this?
You can suggest a correction to this tab. Community and Mods will review your correction and vote to approve or reject it.
comments
print report bad tab
1 comment total.
0 reply
schschify 100 wrote on May 11 2014, 05:48 pm

Great tab!! Very impressive

guest
You may want to rate the tab now too:
select rating
Please do not post tabs as comments. Select "correction" instead!