Oops, an error
Loading. Please wait.

A Lunatics Lament Bass Tab

version 1
version 1

Whole song

Interactive

1,994 views 1 this week
no commentswrite comment
1 2 3 4 5
please rate
add to favorites
launch autoscroll
font size
0
reset
guitar tuner
Tab Pro tools
  • play this tab
  • loop segment
  • change instrument
  • show fretboard
  • metronome
×
Best way to learn
"A Lunatics Lament"
Autoscroll
slow
fast
+/-
esc
set tempo
stop
Contributor
+++++++++++++++++++++++++++++++
| Alesana- A Lunatic's Lament |
+++++++++++++++++++++++++++++++


"You're the only girl I've ever dreamed of..."

Tuning: Drop D (DADG)


Intro
"If only you could see..."
1.
G|-----------------------------------------------------------------|
D|-----------------------------------------------------------------|
A|-1-1-1-1-1-1-1-1-3-3-3-3-3-3-3-3-5-5-5-5-5-5-5-5-5-5-5-5-0-0-0-0-|
D|-----------------------------------------------------------------|

"If only you could see..."
2.
G|---------------------------------------------------------------------|
D|---------------------------------------------------------------------|
A|-1-1-1-1-1-1-1-1-3-3-3-3-3-3-3-3-5-5-5-5-5-5-5-5-5-5-5-5-0x-0x-0x-0x-|
D|---------------------------------------------------------------------|

Verse
"Should I apologize..."
3.
G|-------------------------------------------------------------------------|
D|-------------------------------------------------------------------------|
A|-1-1111111-11111113-3333333-33333335-5555555-55555553-333333-0x-0x-0x-0x-|--x2
D|-------------------------------------------------------------------------|

Pre-Chorus
4.
G|-----------|
D|-----------|
A|-1~--------|
D|-----------|

Chorus
"Darling will you please..."
5.
G|------------------------------------------------------------------|
D|------------------------------------------------------------------|
A|-------------------------0-0-0-0-1-1-1-1-1-1-1-1-3-3-3-3--3x--3x--|--x2
D|-0-0-0-0-0-0-0-0-5-5-5-5------------------------------------------|

Outro
"Are you satisfied?"
6.
G|---------------------------------------------|
D|---------------------------------------------|
A|---------------------------------0x-0x-0x-0x-|
D|-0~----------------0~------------------------|

Verse
"What fate has led me here..."
7.
G|-------------------------------------------------------------------------|
D|-------------------------------------------------------------------------|
A|-1-1111111-11111113-3333333-33333335-5555555-55555553-333333-0x-0x-0x-0x-|--x2
D|-------------------------------------------------------------------------|

Pre-Chorus
8.
G|-----------|
D|-----------|
A|-1~--------|
D|-----------|

Chorus
"Darling will you please..."
9.
G|------------------------------------------------------------------|
D|------------------------------------------------------------------|
A|-------------------------0-0-0-0-1-1-1-1-1-1-1-1-3-3-3-3--3x--3x--|--x2
D|-0-0-0-0-0-0-0-0-5-5-5-5------------------------------------------|

Outro
"Are you satisfied?"
10.
G|-----------------------------------------------------------------------------------------|
D|-----------------------------------------------------------------------------------------|
A|----------------------------------------0000--------------------0000---------------------|
D|-0~----------------0~----------------555-----0~--------0~----555-----0~--------0~--------|

Bridge
11.
G|------------------------------------------------------------------|
D|------------------------------------------------------------------|
A|-------------------------0-0-0-0-1-1-1-1-1-1-1-1-3-3-3-3--3x--3x--|--x2
D|-0-0-0-0-0-0-0-0-5-5-5-5------------------------------------------|

"I wish you could see..."
12.
G|------------------|
D|------------------|
A|------------------|
D|-0~---------------|

Chorus
"Darling will you please..."
13.
G|------------------------------------------------------------------|
D|------------------------------------------------------------------|
A|-------------------------0-0-0-0-1-1-1-1-1-1-1-1-3-3-3-3--3x--3x--|--x2
D|-0-0-0-0-0-0-0-0-5-5-5-5------------------------------------------|

Outro
"Are you satisfied?"
14.
G|---------------------------------------------------------------|
D|---------------------------------------------------------------|
A|---------333-111---------333-111---------333-111-------333-111-|
D|-0x--0x----------0x--0x----------0x--0x----------0x-0x---------|


Please rate!


Lyrics:

If only you could see
You're the only girl I've ever dreamed of

Should I apologize to such pathetic eyes
Just the sight of you has made me sick tonight (tonight)
It was your poison kiss that turned me into this
Then again there is a chance you could be mine tonight

Darling will you please take a walk with me?
We can count the stars that disappear...(I wish you could see)
I wish you could see, you're the only girl I've ever dreamed of
Are you satisfied?

What fate has led me here... Oh please forgive me dear
I don't know if I could survive on my own (my own)
I could have married you instead I buried you
Now I will see if I can fall asleep alone (alone)

The nightmares coming true
Girl it's only you
I'm telling you the truth

The depths of a mans soul can not be measured in a manor of meters
and fathoms; but rather, it is in my opinion, only quantified by his
proximity to haven and hell. It was in such a state I ushered myself
passed the town tavern, bursting at the seams with the sounds laughter
and drunken piano playing. Had it only been a different night, a
different place, a different kind of man passing by the threshold
of that innocent pub, the events that transpired at that point
would have undoubtedly been drastically different. I can only guess if
anyone outside that place had a clue when those exclamations of mirth became the
desperate screams of the helpless begging for their very lives 



+++++++++++++++++++++++++++++++++
| RaiLeff                       |
| Underground__Dora@Hotmail.Com |
+++++++++++++++++++++++++++++++++
comments
We did not receive enough feedback on this tab! Please rate:
print report bad tab
1 2 3 4 5
I want to post or [tab]
guest
You may want to rate the tab now too:
select rating
Please do not post tabs as comments. Select "correction" instead!