Oops, an error
Loading. Please wait.

A Sirens Soliloquy Tab

version 1
version 1

Whole song

Interactive

3,586 views 1 this week
3 commentsread comments
1 2 3 4 5
accurate
x 3
add to favorites
launch autoscroll
font size
0
reset
how to read this tab
guitar tuner
Autoscroll
slow
fast
+/-
esc
set tempo
stop
Help us to improve Ultimate-Guitar.com Take our survey!
×
Author
Tuning
D A D G B E
this is my first tab and im not 100% sure in this.
if i have any mistakes and correction, just correct it. Thx!^^
i dont have any idea about the strum pattern so just listen to the
song.

tuning: Drop D

Intro:
|------------------------------------------------------------------|
|------------------------------------------------------------------|
|------------------------------------------------------------------|
|--9---7---5----4~-------------------------------------------------|
|--9---5---5----4~-------------------------------------------------|
|--9-------5----4~-------------------------------------------------|

Verse:

|------------------------------------------------------------------|
|------------------------------------------------------------------|
|----------7-------------------------------------------------------|
|--9---5---7---7---------------------------------------------------|
|--9---5---5---7---------------------------------------------------|
|--9---5-------7---------------------------------------------------|

Refrain:
|------------------------------------------------------------------|
|------------------------------------------------------------------|
|------------------------------------------------------------------|
|--2---4---5---7---------------------------------------------------|
|--2---4---5---7---------------------------------------------------|
|--2---4---5---7---------------------------------------------------|

Chorus:
|-----------------------------------|------------------------------|
|-----------------------------------|------------------------------|
|--7--------------------------------|------------------------------|
|--7-------7-------9---7---5--------|---9---7---5------------------|
|--5-------7-------9---7---5--------|---9---7---5------------------|
|----------7-------9---7---5--------|---9---7---5------------------|

Bridge:
(Palm Muting)
|------------------------------------------------------------------|
|------------------------------------------------------------------|
|--4--6---7---9----------------------------------------------------|
|--4--6---7---9---9---7--5-----------------------------------------|
|--2--4---5---7---9---7--5-----------------------------------------|
|-----------------9---7--5-----------------------------------------|

|------------------------------------------------------------------|
|------------------------------------------------------------------|
|------------------------------------------6/7---7/9---------------|
|--9----------5---------9--------5---------6/7---7/9---------------|
|--9----------5---------9--------5---------4/5---5/7---------------|
|--9----------5---------9--------5---------------------------------|
Suggest correction
Give kudos to tab author, rate the tab!
1 2 3 4 5
comments
print report bad tab
3 comments total.
0 reply
RaiLeff 12,882 wrote on March 17 2007, 11:36 am

The notes are correct but you should write
the whole tab, not just the first part of each tab
so others can understand it too :)

Oh, and the song is in Standard Tuning, not Drop D ;)
Still good for your first tab

0 reply
janvicGwapo16 10 wrote on April 2 2007, 02:43 am

in standard tuning... i think the inro shud be b d g F#...

0 reply
Darksinister10 30 wrote on November 14 2010, 09:34 pm

no your all wrong all of alesana songs are in Drop D tuning

guest
You may want to rate the tab now too:
select rating
Please do not post tabs as comments. Select "correction" instead!