Oops, an error
Loading. Please wait.

A Sirens Soliloquy Tab

version 2
version 2

Whole song

Interactive

5,985 views 3 this week
6 commentsread comments
1 2 3 4 5
accurate
x 5
add to favorites
launch autoscroll
font size
0
reset
how to read this tab
guitar tuner
Tab Pro tools
  • play this tab
  • loop segment
  • change instrument
  • show fretboard
  • metronome
Autoscroll
slow
fast
+/-
esc
set tempo
stop
Contributor
Difficulty
Tuning
intermediate
D A D G B E
ALESANA - A SIREN'S SOLILOQUY

THIS TAB IS VERY SIMPLE,  SOO ROCK ON, DROP D# I KNOW THAT THE REAL TUNE IS IN D, BUT IT SOUNDS GOOD ^_^

INTRO
|--------------------------------------------------|
|--------------------------------------------------|
|--5-5-5-5-5--8-8-8-8-8----------------------------| 
|--5-5-5-5-5--8-8-8-8-8--6-6-6-6-6--5-5-5--5-5-5---| 
|--3-3-3-3-3--6-6-6-6-6--6-6-6-6-6--5-5-5--5-5-5---|
|------------------------4-4-4-4-4--3-3-3--3-3-3---|

|--------------------------------------------|
|--------------------------------------------|
|--5-5-5-5-5--8-8-8-8-8----------------------| 
|--5-5-5-5-5--8-8-8-8-8--6-6-6-6-6--6-5------| 
|--3-3-3-3-3--6-6-6-6-6--6-6-6-6-6--6-5------|
|------------------------4-4-4-4-4--4-3------|

VERSE
PARALYZED BY THE BEAUTY.....
|---------------------------------------------------------| /
|---------------------------------------------------------| /
|--5-5-5-5-5-5-5-5-5-5-5-5--------------------------------| /
|--5-5-5-5-5-5-5-5-5-5-5-5--8-8-6-6-5-5-6-6-8-8-6-6-5-6---| /
|--3-3-3-3-3-3-3-3-3-3-3-3--------------------------------| /
|---------------------------------------------------------| /
                            . . . . . . . . . . . . . .     /
                                                            /  [x2]
|---------------------------------------------------------| /
|---------------------------------------------------------| /
|---------------------------------------------------------| /
|--6-6-6-6-6-6-6-6-6-6-6-6---5-5-5-5-5----5-5-5---5-------| /
|--6-6-6-6-6-6-6-6-6-6-6-6---5-5-5-5-5----5-5-5---5-------| /
|--4-4-4-4-4-4-4-4-4-4-4-4---3-3-3-3-3----3-3-3---3-------| /

LEFT BEHIND TO FIGHT....
|-------------------------------------------------------------|
|-------------------------------------------------------------|
|-------------------------------------------------------------|
|--3-3-3-3-3--5-5-5-5-5--6-6-6-6-6--8-8-8-8--8--8-8-8-8--8----|
|--3-3-3-3-3--5-5-5-5-5--6-6-6-6-6--8-8-8-8--8--8-8-8-8--8----|
|--1-1-1-1-1--3-3-3-3-3--4-4-4-4-4--6-6-6-6--6--6-6-6-6--6----|
   . . . . .  . . . . .  . . . . .  . . . .     . . . . 

|-------------------------------------------------------------|
|-------------------------------------------------------------|
|-------------------------------------------------------------|
|--3-3-3-3-3--5-5-5-5-5--6-6-6-6-6---8------------------------|
|--3-3-3-3-3--5-5-5-5-5--6-6-6-6-6---8----[5]-[5]-[5]-[5]-----|
|--1-1-1-1-1--3-3-3-3-3--4-4-4-4-4---6------------------------|
   . . . . .  . . . . .  . . .

CHORUS
SUFFERING UNSEEN.....
|-----------|      |----------------------------------|
|--6-8-6----|      |---6-8-9-8-----6-8-9-8------------|
|--------8--|      |--8-------8---8-----------5-------|
|-----------| [x6] |------------------------8----8----|
|-----------|      |----------------------------------|
|-----------|      |----------------------------------|

SO LONG FORGOTTEN...
|-----------|      |----------------------------------|
|--6-8-6----|      |---6-8-9-8-----6-8-9-8----9--8----|
|--------8--|      |--8-------8---8-------------------|
|-----------| [x6] |------------------------8---------|
|-----------|      |----------------------------------|
|-----------|      |----------------------------------|

|--------------------------------------------|
|--------------------------------------------|
|--5-5----5----------------------------------|
|--5-5----5-8-8----8-6-6-6-6-6-6-6-6-6-6-----|
|--3-3----3-8-8----8-6-6-6-6-6-6-6-6-6-6-----|
|-----------6-6----6-4-4-4-4-4-4-4-4-4-4-----|

|----------------------------------------------|
|----------------------------------------------|
|--5-5-5-5-5--8-8-8-8-8------------------------| 
|--5-5-5-5-5--8-8-8-8-8--6-6-6-6-6--6-5--6-5---| 
|--3-3-3-3-3--6-6-6-6-6--6-6-6-6-6--6-5--6-5---|
|------------------------4-4-4-4-4--4-3--4-3---|

VERSE
BEAUTIFUL WISPERS....
|---------------------------------------------------------| /
|---------------------------------------------------------| /
|--5-5-5-5-5-5-5-5-5-5-5-5--------------------------------| /
|--5-5-5-5-5-5-5-5-5-5-5-5--8-8-6-6-5-5-6-6-8-8-6-6-5-6---| /
|--3-3-3-3-3-3-3-3-3-3-3-3--------------------------------| /
|---------------------------------------------------------| /
                            . . . . . . . . . . . . . .     /
                                                            /  [x2]
|---------------------------------------------------------| /
|---------------------------------------------------------| /
|---------------------------------------------------------| /
|--6-6-6-6-6-6-6-6-6-6-6-6---5-5-5-5-5----5-5-5---5-------| /
|--6-6-6-6-6-6-6-6-6-6-6-6---5-5-5-5-5----5-5-5---5-------| /
|--4-4-4-4-4-4-4-4-4-4-4-4---3-3-3-3-3----3-3-3---3-------| /

CHORUS
SUFFERING UNSEEN.....
|-----------|      |----------------------------------|
|--6-8-6----|      |---6-8-9-8-----6-8-9-8------------|
|--------8--|      |--8-------8---8-----------5-------|
|-----------| [x6] |------------------------8----8----|
|-----------|      |----------------------------------|
|-----------|      |----------------------------------|

SO LONG FORGOTTEN...
|-----------|      |----------------------------------|
|--6-8-6----|      |---6-8-9-8-----6-8-9-8----9--8----|
|--------8--|      |--8-------8---8-------------------|
|-----------| [x6] |------------------------8---------|
|-----------|      |----------------------------------|
|-----------|      |----------------------------------|

|--------------------------------------------|
|--------------------------------------------|
|--5-5----5----------------------------------|
|--5-5----5-8-8----8-6-6-6-6-6-6-6-6-6-6-----|
|--3-3----3-8-8----8-6-6-6-6-6-6-6-6-6-6-----|
|-----------6-6----6-4-4-4-4-4-4-4-4-4-4-----|


SET LOOSE SO LONG...                              (THIS PART VERY FAST)
|---------------------------------------------------------------------|
|---------------------------------------------------------------------|
|--5-5-5-5-7-7-7-7-8-8-8-8-10-8-7-5-----------------------------------| 
|--5-5-5-5-7-7-7-7-8-8-8-8-10-8-7-5-8-8-8-8-8-8-8---------8------10---| [x2]
|--3-3-3-3-5-5-5-5-6-6-6-6-8--6-5-3-8-8-8-8-8-8-8---778810-108877-----|
|-----------------------------------4-4-4-4-4-4-4---------------------|

|---------------------------------------------------------------|
|---------------------------------------------------------------|
|--5------------5-5-----------5------------5-5-5----------------|
|--5--------10--5-5--------8--5--------10--5-5-5---8-------10---|
|--3--10-8-7----3-3--7-8-10---3--10-8-7----3-3-3--7--10-8-7-----|
|---------------------------------------------------------------|

|---------------------------------------------------------------|
|---------------------------------------------------------------|
|---------------------------------------------------------------|
|--6--------10--6-6--------8--6--------10--6-6-6---8-------10---|
|--6--10-8-7----6-6--7-8-10---6--10-8-7----6-6-6--7--10-8-7-----|
|--4------------4-4-----------4------------4-4-4----------------|

|-------------------------------------------------------|
|-------------------------------------------------------|
|--5------------5-5-----------5------------5-5-5--------|
|--5--------10--5-5--------8--5--------10--5-5-5--------|
|--3--10-8-7----3-3--7-8-10---3--10-8-7----3-3-3--------|
|-------------------------------------------------------|

|-------------------------------------------------------|
|-------------------------------------------------------|
|-------------------------------------------------------|
|--6--------10--6-6--------8--6--------10--6-6-6----8---|
|--6--10-8-7----6-6--7-8-10---6--10-8-7----6-6-6----8---|
|--4------------4-4-----------4------------4-4-4----6---|

LEFT BEHIND TO FIGHT....
|-------------------------------------------------------------|
|-------------------------------------------------------------|
|-------------------------------------------------------------|
|--3-3-3-3-3--5-5-5-5-5--6-6-6-6-6--8-8-8-8--8--8-8-8-8--8----|
|--3-3-3-3-3--5-5-5-5-5--6-6-6-6-6--8-8-8-8--8--8-8-8-8--8----|
|--1-1-1-1-1--3-3-3-3-3--4-4-4-4-4--6-6-6-6--6--6-6-6-6--6----|
   . . . . .  . . . . .  . . . . .  . . . .     . . . . 

|-------------------------------------------------------------|
|-------------------------------------------------------------|
|-------------------------------------------------------------|
|--3-3-3-3-3--5-5-5-5-5--6-6-6-6-6---8------------------------|
|--3-3-3-3-3--5-5-5-5-5--6-6-6-6-6---8----[5]-[5]-[5]-[5]-----|
|--1-1-1-1-1--3-3-3-3-3--4-4-4-4-4---6------------------------|
   . . . . .  . . . . .  . . .

CHORUS
SUFFERING UNSEEN.....
|-----------|      |----------------------------------|
|--6-8-6----|      |---6-8-9-8-----6-8-9-8------------|
|--------8--|      |--8-------8---8-----------5-------|
|-----------| [x6] |------------------------8----8----|
|-----------|      |----------------------------------|
|-----------|      |----------------------------------|

SO LONG FORGOTTEN...
|-----------|      |----------------------------------|
|--6-8-6----|      |---6-8-9-8-----6-8-9-8----9--8----|
|--------8--|      |--8-------8---8-------------------|
|-----------| [x6] |------------------------8---------|
|-----------|      |----------------------------------|
|-----------|      |----------------------------------|

|--------------------------------------------|
|--------------------------------------------|
|--5-5----5----------------------------------|
|--5-5----5-8-8----8-6-6-6-6-6-6-6-6-6-6-----|
|--3-3----3-8-8----8-6-6-6-6-6-6-6-6-6-6-----|
|-----------6-6----6-4-4-4-4-4-4-4-4-4-4-----|

|----------------------------------------------|
|----------------------------------------------|
|--5-5-5-5-5--8-8-8-8-8------------------------| 
|--5-5-5-5-5--8-8-8-8-8--6-6-6-6-6--6-5--6-5---| [x2]
|--3-3-3-3-3--6-6-6-6-6--6-6-6-6-6--6-5--6-5---|
|------------------------4-4-4-4-4--4-3--4-3---|



AND  THATS  ALL GUYS, WELL HOPE ENJOY IT AND CHECK OUT AT

http://www.youtube.com/watch?v=DAoN1E-V2CA

THANX   FREAKY WI ^_^!!!!!!!

comments
print report bad tab
6 comments total. Showing first comments.
0 reply
phenom14 wrote on January 20 2007, 02:14 am

hod you you do drop d#?... sorry... noob here...

0 reply
janvicGwapo16 wrote on April 2 2007, 02:39 am

your tab is in standard tuning??...right??... then i have to tune my guitar half step down to play it?ryt?.. try it... i know its ryt

0 reply
JSFS wrote on May 28 2008, 08:25 pm

Quite wrong her m8. You've messed up a lot of the riffs. Basic structure's fine, but keep practicing. Tremelo part's wrong.

I want to post or [tab]
guest
You may want to rate the tab now too:
select rating
Please do not post tabs as comments. Select "correction" instead!