Oops, an error
Loading. Please wait.

Alchemy Sounded Good At The Time bass

version 1
version 1

Whole song

Interactive

by Alesana
1,844 views 1 this week
5 commentsread comments
1 2 3 4 5
1 last vote to show rating
add to favorites
×
Save as Personal and add changes to this tab that will be seen only by you. Learn more ›
×
You can save this tab as Personal to edit and correct it or add notes. All changes will be seen only by you. Learn more »
launch autoscroll
font size
0
reset
guitar tuner
edit
Autoscroll
slow
fast
+/-
esc
set tempo
stop
ASGATT
(Alchemy Sounded Good At The Time)
Bass ^^

Enjoy!

Drop D

| ~ = Let ring
| x = Mute
| ~x= Ring and mute :P
| p = Pull off
| h = Hammer on
| * = Harmonics (Not really used on bass)
| / = Slide


Intro.
1.
|---------------------------------------------|
|---------------------------------------------|
|-7~x---7~x---7~x-7----7--7~x-7----7-7-7-7-3x-|
|------------------0-0---------0-0------------|

"My darling queen.."
2.
|----------------------------------|
|----------------------------------|
|------3~---0x-----3~-0x-----------|
|----------------------------------|

"Wind cries out.."
3.
|--------------------------------------------------------------------|
|--------------------------------------------------------------------|
|-000000000000-0x-0-000000000000-0x-3-333333333333-3x-3333333333333-3|
|--------------------------------------------------------------------|

4.
|------------------------------------|
|------------------------------------|
|-000000000000-0x-0-000000000000-0x--|
|------------------------------------|

"I have deceived.." x2
5.
|------------------------------|
|------------------------------|
|------------------------------|
|-0-0-000x--0-0-000x-0-0-000x--|

6.
|--------------|
|--------------|
|--7-7-777x----|
|--------------|

Chorus
"Cold flesh lends to me it's secret.."
7.
|-----------------------------------------------------------|
|-----------------------------------------------------------|
|-3333333333333-5555555555555-77777777777777-22222222222222-|
|-----------------------------------------------------------|

"For a price too high.."
8.
|--------------------------------------------------------------------|
|--------------------------------------------------------------------|
|-33333333333333-5555555/14141414141414-777777777777777-222222222222-|
|--------------------------------------------------------------------|

"I shudder at what I have done.."
9.
|----------------------|
|----------------------|
|-3x---3x---5x---5x----|
|----------------------|

Outro.
10.
|-------------------------------------|
|-------------------------------------|
|-7~x--7----7--7~x-7----7-7-7-7-3x----|
|-------0-0---------000---------------|

"Chills take me as she wakes.."
11.
|--------------------------------------------------------------------|
|--------------------------------------------------------------------|
|-000000000000-0x-0-000000000000-0x-3-333333333333-3x-3333333333333-3|
|--------------------------------------------------------------------|

12.
|--------------------------------------------------------------------|
|--------------------------------------------------------------------|
|-000000000000-0x-0-000000000000-0x-3-333333333333333333333~---------|
|--------------------------------------------------------------------|

"I'm so consumed by.." x2
13.
|------------------------------------------|
|------------------------------------------|
|-3-3-3-3x--5-5-5-5x-----------------------|
|---------------------0-0-0-0x--0-0-0-0x---|

Chorus
"Cold flesh lends to me it's secret.."
14.
|-----------------------------------------------------------|
|-----------------------------------------------------------|
|-3333333333333-5555555555555-77777777777777-22222222222222-|
|-----------------------------------------------------------|

"For a price too high.."
15.
|--------------------------------------------------------------------|
|--------------------------------------------------------------------|
|-33333333333333-5555555/14141414141414-777777777777777-222222222222-|
|--------------------------------------------------------------------|

"I shudder at what I have done.."
16.
|----------------------|
|----------------------|
|-3x---3x---5x---5x----|
|----------------------|

"The pains of death can no longer haunt you.."
17.
|--------|
|--------|
|--------|
|-0~-0~--|----- x4

"The hands of fate.."
18.
|----------------------------------------|
|----------------------------------------|
|---------------------77777777777777777--|
|-0-1/2-1-0x-0x-0x-0x--------------------|

"Sinews twicht...."
19.
|------------------------------|
|---------------------5/3-0-2--|
|------------------------------|
|-0x-0x-0x-0x-0-1/2-1----------|

20.
|--------------------------------|
|--------------------------------|
|-------------7777777777777777---|
|-0x-0x-0x-0x--------------------|

21.
|-------------------------|
|-------------------------|
|-------------------------|
|-0x-0x-0x-0x-0-1/2-1-----|

22.
|--------------------------------|
|--------------------------------|
|-------------7777777777777777---|
|-0x-0x-0x-0x--------------------|

23.
|--------------------------------|
|---------------------5/3-0-2----|
|--------------------------------|
|-0x-0x-0x-0x-0-1/2-1---------0~-|

And ends with the chorus
Great song, enjoy
Plz rate :D

RaiLeff
Underground__Dora@hotmail.com

            
            
Suggest correction
Creating personal tab
Creating personal tab
You can edit any tab online and save it as your Personal.

You can edit, replace or remove any tab part or add personal notes – all changes will be seen only by you.

Personal tabs can be accessed anytime from any device, even offline.
Learn more »
Give kudos to tab author, rate the tab!
1 2 3 4 5
comments
print report bad tab
5 comments total. Showing first comments.
+1 reply
redoriole08 131 May 13, 2008 03:05 PM

Its pretty much perfect with few flaws nice job but a little hard to follow keep up the awesomness

0 reply
funkyrocker24 272 Mar 26, 2009 10:26 AM

well it WOULD be good sept i think you've said the wrong tuning, if you play what you've written it sounds too sharp... but otherwise its all right

0 reply
musea7x 30 Apr 20, 2009 03:01 PM

yea, dude, the tuning is not right

guest
You may want to rate the tab now too:
select rating
Wanna post a correction for this tab? Suggest correction